  0
SECTION
  2
HEADER
  9
$ACADVER
  1
AC1015
  9
$ACADMAINTVER
 70
     6
  9
$DWGCODEPAGE
  3
ANSI_1252
  9
$INSBASE
 10
0.0
 20
0.0
 30
0.0
  9
$EXTMIN
 10
0.0
 20
0.0
 30
0.0
  9
$EXTMAX
 10
120.0
 20
40.0000000181
 30
0.0
  9
$LIMMIN
 10
0.0
 20
0.0
  9
$LIMMAX
 10
420.0
 20
297.0
  9
$ORTHOMODE
 70
     0
  9
$REGENMODE
 70
     1
  9
$FILLMODE
 70
     1
  9
$QTEXTMODE
 70
     0
  9
$MIRRTEXT
 70
     1
  9
$LTSCALE
 40
1.0
  9
$ATTMODE
 70
     1
  9
$TEXTSIZE
 40
3.175
  9
$TRACEWID
 40
1.0
  9
$TEXTSTYLE
  7
Standard
  9
$CLAYER
  8
0
  9
$CELTYPE
  6
ByLayer
  9
$CECOLOR
 62
   256
  9
$CELTSCALE
 40
1.0
  9
$DISPSILH
 70
     0
  9
$DIMSCALE
 40
1.0
  9
$DIMASZ
 40
3.302
  9
$DIMEXO
 40
0.0
  9
$DIMDLI
 40
3.75
  9
$DIMRND
 40
0.0
  9
$DIMDLE
 40
0.0
  9
$DIMEXE
 40
3.175
  9
$DIMTP
 40
0.0
  9
$DIMTM
 40
0.0
  9
$DIMTXT
 40
3.175
  9
$DIMCEN
 40
2.5
  9
$DIMTSZ
 40
0.0
  9
$DIMTOL
 70
     0
  9
$DIMLIM
 70
     0
  9
$DIMTIH
 70
     1
  9
$DIMTOH
 70
     1
  9
$DIMSE1
 70
     0
  9
$DIMSE2
 70
     0
  9
$DIMTAD
 70
     0
  9
$DIMZIN
 70
     0
  9
$DIMBLK
  1

  9
$DIMASO
 70
     1
  9
$DIMSHO
 70
     1
  9
$DIMPOST
  1

  9
$DIMAPOST
  1

  9
$DIMALT
 70
     0
  9
$DIMALTD
 70
     3
  9
$DIMALTF
 40
0.0393700787
  9
$DIMLFAC
 40
1.0
  9
$DIMTOFL
 70
     1
  9
$DIMTVP
 40
0.0
  9
$DIMTIX
 70
     0
  9
$DIMSOXD
 70
     0
  9
$DIMSAH
 70
     0
  9
$DIMBLK1
  1

  9
$DIMBLK2
  1

  9
$DIMSTYLE
  2
ISO-25
  9
$DIMCLRD
 70
     0
  9
$DIMCLRE
 70
     0
  9
$DIMCLRT
 70
     0
  9
$DIMTFAC
 40
1.0
  9
$DIMGAP
 40
1.524
  9
$DIMJUST
 70
     0
  9
$DIMSD1
 70
     0
  9
$DIMSD2
 70
     0
  9
$DIMTOLJ
 70
     0
  9
$DIMTZIN
 70
     0
  9
$DIMALTZ
 70
     0
  9
$DIMALTTZ
 70
     0
  9
$DIMUPT
 70
     0
  9
$DIMDEC
 70
     2
  9
$DIMTDEC
 70
     2
  9
$DIMALTU
 70
     2
  9
$DIMALTTD
 70
     3
  9
$DIMTXSTY
  7
Standard
  9
$DIMAUNIT
 70
     0
  9
$DIMADEC
 70
     2
  9
$DIMALTRND
 40
0.0
  9
$DIMAZIN
 70
     0
  9
$DIMDSEP
 70
    44
  9
$DIMATFIT
 70
     3
  9
$DIMFRAC
 70
     0
  9
$DIMLDRBLK
  1

  9
$DIMLUNIT
 70
     2
  9
$DIMLWD
 70
    -2
  9
$DIMLWE
 70
    -2
  9
$DIMTMOVE
 70
     0
  9
$LUNITS
 70
     2
  9
$LUPREC
 70
     2
  9
$SKETCHINC
 40
1.0
  9
$FILLETRAD
 40
10.0
  9
$AUNITS
 70
     0
  9
$AUPREC
 70
     2
  9
$MENU
  1
.
  9
$ELEVATION
 40
0.0
  9
$PELEVATION
 40
0.0
  9
$THICKNESS
 40
0.0
  9
$LIMCHECK
 70
     0
  9
$CHAMFERA
 40
0.0
  9
$CHAMFERB
 40
0.0
  9
$CHAMFERC
 40
0.0
  9
$CHAMFERD
 40
0.0
  9
$SKPOLY
 70
     0
  9
$TDCREATE
 40
2459481.534575035
  9
$TDUCREATE
 40
2459481.451241701
  9
$TDUPDATE
 40
2459481.534602037
  9
$TDUUPDATE
 40
2459481.451268704
  9
$TDINDWG
 40
0.0000000116
  9
$TDUSRTIMER
 40
0.0000000116
  9
$USRTIMER
 70
     1
  9
$ANGBASE
 50
0.0
  9
$ANGDIR
 70
     0
  9
$PDMODE
 70
     0
  9
$PDSIZE
 40
-1.0
  9
$PLINEWID
 40
0.0
  9
$SPLFRAME
 70
     0
  9
$SPLINETYPE
 70
     6
  9
$SPLINESEGS
 70
     8
  9
$HANDSEED
  5
3F4
  9
$SURFTAB1
 70
     6
  9
$SURFTAB2
 70
     6
  9
$SURFTYPE
 70
     6
  9
$SURFU
 70
     6
  9
$SURFV
 70
     6
  9
$UCSBASE
  2

  9
$UCSNAME
  2

  9
$UCSORG
 10
0.0
 20
0.0
 30
0.0
  9
$UCSXDIR
 10
1.0
 20
0.0
 30
0.0
  9
$UCSYDIR
 10
0.0
 20
1.0
 30
0.0
  9
$UCSORTHOREF
  2

  9
$UCSORTHOVIEW
 70
     0
  9
$UCSORGTOP
 10
0.0
 20
0.0
 30
0.0
  9
$UCSORGBOTTOM
 10
0.0
 20
0.0
 30
0.0
  9
$UCSORGLEFT
 10
0.0
 20
0.0
 30
0.0
  9
$UCSORGRIGHT
 10
0.0
 20
0.0
 30
0.0
  9
$UCSORGFRONT
 10
0.0
 20
0.0
 30
0.0
  9
$UCSORGBACK
 10
0.0
 20
0.0
 30
0.0
  9
$PUCSBASE
  2

  9
$PUCSNAME
  2

  9
$PUCSORG
 10
0.0
 20
0.0
 30
0.0
  9
$PUCSXDIR
 10
1.0
 20
0.0
 30
0.0
  9
$PUCSYDIR
 10
0.0
 20
1.0
 30
0.0
  9
$PUCSORTHOREF
  2

  9
$PUCSORTHOVIEW
 70
     0
  9
$PUCSORGTOP
 10
0.0
 20
0.0
 30
0.0
  9
$PUCSORGBOTTOM
 10
0.0
 20
0.0
 30
0.0
  9
$PUCSORGLEFT
 10
0.0
 20
0.0
 30
0.0
  9
$PUCSORGRIGHT
 10
0.0
 20
0.0
 30
0.0
  9
$PUCSORGFRONT
 10
0.0
 20
0.0
 30
0.0
  9
$PUCSORGBACK
 10
0.0
 20
0.0
 30
0.0
  9
$USERI1
 70
     0
  9
$USERI2
 70
     0
  9
$USERI3
 70
     0
  9
$USERI4
 70
     0
  9
$USERI5
 70
     0
  9
$USERR1
 40
0.0
  9
$USERR2
 40
0.0
  9
$USERR3
 40
0.0
  9
$USERR4
 40
0.0
  9
$USERR5
 40
0.0
  9
$WORLDVIEW
 70
     1
  9
$SHADEDGE
 70
     3
  9
$SHADEDIF
 70
    70
  9
$TILEMODE
 70
     1
  9
$MAXACTVP
 70
    64
  9
$PINSBASE
 10
0.0
 20
0.0
 30
0.0
  9
$PLIMCHECK
 70
     0
  9
$PEXTMIN
 10
1.0000000000E+20
 20
1.0000000000E+20
 30
1.0000000000E+20
  9
$PEXTMAX
 10
-1.0000000000E+20
 20
-1.0000000000E+20
 30
-1.0000000000E+20
  9
$PLIMMIN
 10
0.0
 20
0.0
  9
$PLIMMAX
 10
420.0
 20
297.0
  9
$UNITMODE
 70
     0
  9
$VISRETAIN
 70
     1
  9
$PLINEGEN
 70
     0
  9
$PSLTSCALE
 70
     1
  9
$TREEDEPTH
 70
  3020
  9
$CMLSTYLE
  2
Standard
  9
$CMLJUST
 70
     0
  9
$CMLSCALE
 40
20.0
  9
$PROXYGRAPHICS
 70
     1
  9
$MEASUREMENT
 70
     1
  9
$CELWEIGHT
370
    -1
  9
$ENDCAPS
280
     0
  9
$JOINSTYLE
280
     0
  9
$LWDISPLAY
290
     1
  9
$INSUNITS
 70
     4
  9
$HYPERLINKBASE
  1

  9
$STYLESHEET
  1

  9
$XEDIT
290
     1
  9
$CEPSNTYPE
380
     0
  9
$PSTYLEMODE
290
     1
  9
$FINGERPRINTGUID
  2
{327f1a68-1252-42e2-a2e6-49d168499fc5}
  9
$VERSIONGUID
  2
{FAEB1C32-E019-11D5-929B-00C0DF256EC4}
  9
$EXTNAMES
290
     1
  9
$PSVPSCALE
 40
0.0
  9
$OLESTARTUP
290
     0
  0
ENDSEC
  0
SECTION
  2
CLASSES
  0
CLASS
  1
ACDBDICTIONARYWDFLT
  2
AcDbDictionaryWithDefault
  3
ObjectDBX Classes
 90
        0
280
     0
281
     0
  0
CLASS
  1
VISUALSTYLE
  2
AcDbVisualStyle
  3
ObjectDBX Classes
 90
     4095
280
     0
281
     0
  0
CLASS
  1
MATERIAL
  2
AcDbMaterial
  3
ObjectDBX Classes
 90
     1153
280
     0
281
     0
  0
CLASS
  1
SCALE
  2
AcDbScale
  3
ObjectDBX Classes
 90
     1153
280
     0
281
     0
  0
CLASS
  1
TABLESTYLE
  2
AcDbTableStyle
  3
ObjectDBX Classes
 90
     4095
280
     0
281
     0
  0
CLASS
  1
MLEADERSTYLE
  2
AcDbMLeaderStyle
  3
ACDB_MLEADERSTYLE_CLASS
 90
     4095
280
     0
281
     0
  0
CLASS
  1
SUN
  2
AcDbSun
  3
SCENEOE
 90
     1153
280
     0
281
     0
  0
CLASS
  1
ACDBPLACEHOLDER
  2
AcDbPlaceHolder
  3
ObjectDBX Classes
 90
        0
280
     0
281
     0
  0
CLASS
  1
LAYOUT
  2
AcDbLayout
  3
ObjectDBX Classes
 90
        0
280
     0
281
     0
  0
ENDSEC
  0
SECTION
  2
TABLES
  0
TABLE
  2
VPORT
  5
8
330
0
100
AcDbSymbolTable
 70
     1
  0
VPORT
  5
29
330
8
100
AcDbSymbolTableRecord
100
AcDbViewportTableRecord
  2
*Active
 70
     0
 10
0.0
 20
0.0
 11
1.0
 21
1.0
 12
60.0
 22
20.000000009
 13
0.0
 23
0.0
 14
10.0
 24
10.0
 15
10.0
 25
10.0
 16
0.0
 26
0.0
 36
1.0
 17
0.0
 27
0.0
 37
0.0
 40
40.8000000184
 41
2.9999999986
 42
50.0
 43
0.0
 44
0.0
 50
0.0
 51
0.0
 71
     0
 72
   100
 73
     1
 74
     3
 75
     0
 76
     0
 77
     0
 78
     0
281
     0
 65
     1
110
0.0
120
0.0
130
0.0
111
1.0
121
0.0
131
0.0
112
0.0
122
1.0
132
0.0
 79
     0
146
0.0
  0
ENDTAB
  0
TABLE
  2
LTYPE
  5
5
330
0
100
AcDbSymbolTable
 70
     6
  0
LTYPE
  5
14
330
5
100
AcDbSymbolTableRecord
100
AcDbLinetypeTableRecord
  2
ByBlock
 70
     0
  3

 72
    65
 73
     0
 40
0.0
  0
LTYPE
  5
15
330
5
100
AcDbSymbolTableRecord
100
AcDbLinetypeTableRecord
  2
ByLayer
 70
     0
  3

 72
    65
 73
     0
 40
0.0
  0
LTYPE
  5
16
330
5
100
AcDbSymbolTableRecord
100
AcDbLinetypeTableRecord
  2
Continuous
 70
     0
  3
Solid line
 72
    65
 73
     0
 40
0.0
  0
LTYPE
  5
6E
330
5
100
AcDbSymbolTableRecord
100
AcDbLinetypeTableRecord
  2
HIDDEN
 70
     0
  3
Hidden __ __ __ __ __ __ __ __ __ __ __ __ __ __
 72
    65
 73
     2
 40
1.905
 49
1.27
 74
     0
 49
-0.635
 74
     0
  0
LTYPE
  5
6F
330
5
100
AcDbSymbolTableRecord
100
AcDbLinetypeTableRecord
  2
PHANTOM
 70
     0
  3
Phantom ______  __  __  ______  __  __  ______
 72
    65
 73
     6
 40
12.7
 49
6.35
 74
     0
 49
-1.27
 74
     0
 49
1.27
 74
     0
 49
-1.27
 74
     0
 49
1.27
 74
     0
 49
-1.27
 74
     0
  0
LTYPE
  5
70
330
5
100
AcDbSymbolTableRecord
100
AcDbLinetypeTableRecord
  2
CENTER
 70
     0
  3
Center ____ _ ____ _ ____ _ ____ _ ____ _ ____
 72
    65
 73
     4
 40
10.16
 49
6.35
 74
     0
 49
-1.27
 74
     0
 49
1.27
 74
     0
 49
-1.27
 74
     0
  0
LTYPE
  5
71
330
5
100
AcDbSymbolTableRecord
100
AcDbLinetypeTableRecord
  2
CENTERX2
 70
     0
  3
Center (2x) ________  __  ________  __  _____
 72
    65
 73
     4
 40
20.32
 49
12.7
 74
     0
 49
-2.54
 74
     0
 49
2.54
 74
     0
 49
-2.54
 74
     0
  0
LTYPE
  5
72
330
5
100
AcDbSymbolTableRecord
100
AcDbLinetypeTableRecord
  2
DOT2
 70
     0
  3
Dot (.5x) ........................................
 72
    65
 73
     2
 40
0.635
 49
0.0
 74
     0
 49
-0.635
 74
     0
  0
ENDTAB
  0
TABLE
  2
LAYER
  5
2
330
0
100
AcDbSymbolTable
 70
     1
  0
LAYER
  5
10
330
2
100
AcDbSymbolTableRecord
100
AcDbLayerTableRecord
  2
0
 70
     0
 62
     7
  6
Continuous
370
    -3
390
F
  0
ENDTAB
  0
TABLE
  2
STYLE
  5
3
330
0
100
AcDbSymbolTable
 70
     1
  0
STYLE
  5
11
330
3
100
AcDbSymbolTableRecord
100
AcDbTextStyleTableRecord
  2
Standard
 70
     0
 40
0.0
 41
1.0
 50
0.0
 71
     0
 42
3.175
  3
txt
  4

  0
ENDTAB
  0
TABLE
  2
VIEW
  5
6
330
0
100
AcDbSymbolTable
 70
     0
  0
ENDTAB
  0
TABLE
  2
UCS
  5
7
330
0
100
AcDbSymbolTable
 70
     0
  0
ENDTAB
  0
TABLE
  2
APPID
  5
9
330
0
100
AcDbSymbolTable
 70
     1
  0
APPID
  5
12
330
9
100
AcDbSymbolTableRecord
100
AcDbRegAppTableRecord
  2
ACAD
 70
     0
  0
ENDTAB
  0
TABLE
  2
DIMSTYLE
  5
A
330
0
100
AcDbSymbolTable
 70
     1
100
AcDbDimStyleTable
  0
DIMSTYLE
105
27
330
A
100
AcDbSymbolTableRecord
100
AcDbDimStyleTableRecord
  2
ISO-25
 70
     0
 41
2.5
 42
0.625
 43
3.75
 44
1.25
 73
     0
 74
     0
 77
     1
 78
     8
140
2.5
141
2.5
143
0.0393700787
147
0.625
171
     3
172
     1
178
     0
271
     2
272
     2
274
     3
278
    44
283
     0
284
     8
340
11
  0
ENDTAB
  0
TABLE
  2
BLOCK_RECORD
  5
1
330
0
100
AcDbSymbolTable
 70
     1
  0
BLOCK_RECORD
  5
1F
330
1
100
AcDbSymbolTableRecord
100
AcDbBlockTableRecord
  2
*Model_Space
340
22
  0
BLOCK_RECORD
  5
1B
330
1
100
AcDbSymbolTableRecord
100
AcDbBlockTableRecord
  2
*Paper_Space
340
1E
  0
BLOCK_RECORD
  5
23
330
1
100
AcDbSymbolTableRecord
100
AcDbBlockTableRecord
  2
*Paper_Space0
340
26
  0
ENDTAB
  0
ENDSEC
  0
SECTION
  2
BLOCKS
  0
BLOCK
  5
20
330
1F
100
AcDbEntity
  8
0
100
AcDbBlockBegin
  2
*Model_Space
 70
     0
 10
0.0
 20
0.0
 30
0.0
  3
*Model_Space
  1

  0
ENDBLK
  5
21
330
1F
100
AcDbEntity
  8
0
100
AcDbBlockEnd
  0
BLOCK
  5
1C
330
1B
100
AcDbEntity
 67
     1
  8
0
100
AcDbBlockBegin
  2
*Paper_Space
 70
     0
 10
0.0
 20
0.0
 30
0.0
  3
*Paper_Space
  1

  0
ENDBLK
  5
1D
330
1B
100
AcDbEntity
 67
     1
  8
0
100
AcDbBlockEnd
  0
BLOCK
  5
24
330
23
100
AcDbEntity
  8
0
100
AcDbBlockBegin
  2
*Paper_Space0
 70
     0
 10
0.0
 20
0.0
 30
0.0
  3
*Paper_Space0
  1

  0
ENDBLK
  5
25
330
23
100
AcDbEntity
  8
0
100
AcDbBlockEnd
  0
ENDSEC
  0
SECTION
  2
ENTITIES
  0
LINE
  5
233
330
1F
100
AcDbEntity
  8
0
  6
Continuous
 62
     7
370
    25
100
AcDbLine
 10
62.5
 20
12.8647484026
 30
0.0
 11
62.5
 21
10.0
 31
0.0
  0
LINE
  5
234
330
1F
100
AcDbEntity
  8
0
  6
Continuous
 62
     7
370
    25
100
AcDbLine
 10
62.5
 20
10.0
 30
0.0
 11
57.5
 21
10.0
 31
0.0
  0
LINE
  5
235
330
1F
100
AcDbEntity
  8
0
  6
Continuous
 62
     7
370
    25
100
AcDbLine
 10
57.5
 20
10.0
 30
0.0
 11
57.5
 21
13.8577119775
 31
0.0
  0
LINE
  5
236
330
1F
100
AcDbEntity
  8
0
  6
Continuous
 62
     7
370
    25
100
AcDbLine
 10
56.5103816421
 20
40.0
 30
0.0
 11
54.9899743878
 21
40.0
 31
0.0
  0
LINE
  5
237
330
1F
100
AcDbEntity
  8
0
  6
Continuous
 62
     7
370
    25
100
AcDbLine
 10
52.926612254
 20
12.857301858
 30
0.0
 11
52.5
 21
12.8647484026
 31
0.0
  0
LINE
  5
238
330
1F
100
AcDbEntity
  8
0
  6
Continuous
 62
     7
370
    25
100
AcDbLine
 10
52.5
 20
12.8647484026
 30
0.0
 11
52.5
 21
10.0
 31
0.0
  0
LINE
  5
239
330
1F
100
AcDbEntity
  8
0
  6
Continuous
 62
     7
370
    25
100
AcDbLine
 10
52.5
 20
10.0
 30
0.0
 11
47.5
 21
10.0
 31
0.0
  0
LINE
  5
23A
330
1F
100
AcDbEntity
  8
0
  6
Continuous
 62
     7
370
    25
100
AcDbLine
 10
47.5
 20
10.0
 30
0.0
 11
47.5
 21
13.8577119775
 31
0.0
  0
LINE
  5
23B
330
1F
100
AcDbEntity
  8
0
  6
Continuous
 62
     7
370
    25
100
AcDbLine
 10
46.5103816421
 20
40.0
 30
0.0
 11
44.9899743878
 21
40.0
 31
0.0
  0
LINE
  5
23C
330
1F
100
AcDbEntity
  8
0
  6
Continuous
 62
     7
370
    25
100
AcDbLine
 10
42.926612254
 20
12.857301858
 30
0.0
 11
42.5
 21
12.8647484026
 31
0.0
  0
LINE
  5
23D
330
1F
100
AcDbEntity
  8
0
  6
Continuous
 62
     7
370
    25
100
AcDbLine
 10
42.5
 20
12.8647484026
 30
0.0
 11
42.5
 21
10.0
 31
0.0
  0
LINE
  5
23E
330
1F
100
AcDbEntity
  8
0
  6
Continuous
 62
     7
370
    25
100
AcDbLine
 10
42.5
 20
10.0
 30
0.0
 11
37.5
 21
10.0
 31
0.0
  0
LINE
  5
23F
330
1F
100
AcDbEntity
  8
0
  6
Continuous
 62
     7
370
    25
100
AcDbLine
 10
37.5
 20
10.0
 30
0.0
 11
37.5
 21
13.8577119775
 31
0.0
  0
LINE
  5
240
330
1F
100
AcDbEntity
  8
0
  6
Continuous
 62
     7
370
    25
100
AcDbLine
 10
36.5103816421
 20
40.0
 30
0.0
 11
34.9899743878
 21
40.0
 31
0.0
  0
LINE
  5
241
330
1F
100
AcDbEntity
  8
0
  6
Continuous
 62
     7
370
    25
100
AcDbLine
 10
32.926612254
 20
12.857301858
 30
0.0
 11
32.5
 21
12.8647484026
 31
0.0
  0
LINE
  5
242
330
1F
100
AcDbEntity
  8
0
  6
Continuous
 62
     7
370
    25
100
AcDbLine
 10
32.5
 20
12.8647484026
 30
0.0
 11
32.5
 21
10.0
 31
0.0
  0
LINE
  5
243
330
1F
100
AcDbEntity
  8
0
  6
Continuous
 62
     7
370
    25
100
AcDbLine
 10
32.5
 20
10.0
 30
0.0
 11
27.5
 21
10.0
 31
0.0
  0
LINE
  5
244
330
1F
100
AcDbEntity
  8
0
  6
Continuous
 62
     7
370
    25
100
AcDbLine
 10
27.5
 20
10.0
 30
0.0
 11
27.5
 21
13.8577119775
 31
0.0
  0
LINE
  5
245
330
1F
100
AcDbEntity
  8
0
  6
Continuous
 62
     7
370
    25
100
AcDbLine
 10
26.5103816421
 20
40.0
 30
0.0
 11
24.9899743878
 21
40.0
 31
0.0
  0
LINE
  5
246
330
1F
100
AcDbEntity
  8
0
  6
Continuous
 62
     7
370
    25
100
AcDbLine
 10
22.926612254
 20
12.857301858
 30
0.0
 11
22.5
 21
12.8647484026
 31
0.0
  0
LINE
  5
247
330
1F
100
AcDbEntity
  8
0
  6
Continuous
 62
     7
370
    25
100
AcDbLine
 10
22.5
 20
12.8647484026
 30
0.0
 11
22.5
 21
10.0
 31
0.0
  0
LINE
  5
248
330
1F
100
AcDbEntity
  8
0
  6
Continuous
 62
     7
370
    25
100
AcDbLine
 10
22.5
 20
10.0
 30
0.0
 11
17.5
 21
10.0
 31
0.0
  0
LINE
  5
249
330
1F
100
AcDbEntity
  8
0
  6
Continuous
 62
     7
370
    25
100
AcDbLine
 10
17.5
 20
10.0
 30
0.0
 11
17.5
 21
13.8577119775
 31
0.0
  0
LINE
  5
24A
330
1F
100
AcDbEntity
  8
0
  6
Continuous
 62
     7
370
    25
100
AcDbLine
 10
16.5103816421
 20
40.0
 30
0.0
 11
14.9899743878
 21
40.0
 31
0.0
  0
LINE
  5
24B
330
1F
100
AcDbEntity
  8
0
  6
Continuous
 62
     7
370
    25
100
AcDbLine
 10
12.926612254
 20
12.857301858
 30
0.0
 11
12.5
 21
12.8647484026
 31
0.0
  0
LINE
  5
24C
330
1F
100
AcDbEntity
  8
0
  6
Continuous
 62
     7
370
    25
100
AcDbLine
 10
12.5
 20
12.8647484026
 30
0.0
 11
12.5
 21
10.0
 31
0.0
  0
LINE
  5
24D
330
1F
100
AcDbEntity
  8
0
  6
Continuous
 62
     7
370
    25
100
AcDbLine
 10
12.5
 20
10.0
 30
0.0
 11
6.0
 21
10.0
 31
0.0
  0
LINE
  5
24E
330
1F
100
AcDbEntity
  8
0
  6
Continuous
 62
     7
370
    25
100
AcDbLine
 10
6.0
 20
10.0
 30
0.0
 11
5.8230611273
 21
12.6540830906
 31
0.0
  0
LINE
  5
24F
330
1F
100
AcDbEntity
  8
0
  6
Continuous
 62
     7
370
    25
100
AcDbLine
 10
5.8230611273
 20
12.6540830906
 30
0.0
 11
6.0023712624
 21
12.6659928566
 31
0.0
  0
LINE
  5
250
330
1F
100
AcDbEntity
  8
0
  6
Continuous
 62
     7
370
    25
100
AcDbLine
 10
4.0060242324
 20
39.9096365146
 30
0.0
 11
4.0
 21
40.0
 31
0.0
  0
LINE
  5
251
330
1F
100
AcDbEntity
  8
0
  6
Continuous
 62
     7
370
    25
100
AcDbLine
 10
4.0
 20
40.0
 30
0.0
 11
0.0
 21
40.0
 31
0.0
  0
LINE
  5
252
330
1F
100
AcDbEntity
  8
0
  6
Continuous
 62
     7
370
    25
100
AcDbLine
 10
0.0
 20
40.0
 30
0.0
 11
0.0
 21
0.0
 31
0.0
  0
LINE
  5
253
330
1F
100
AcDbEntity
  8
0
  6
Continuous
 62
     7
370
    25
100
AcDbLine
 10
0.0
 20
0.0
 30
0.0
 11
120.0
 21
0.0
 31
0.0
  0
LINE
  5
254
330
1F
100
AcDbEntity
  8
0
  6
Continuous
 62
     7
370
    25
100
AcDbLine
 10
120.0
 20
0.0
 30
0.0
 11
120.0
 21
40.0000000181
 31
0.0
  0
LINE
  5
255
330
1F
100
AcDbEntity
  8
0
  6
Continuous
 62
     7
370
    25
100
AcDbLine
 10
120.0
 20
40.0000000181
 30
0.0
 11
116.0000000012
 21
40.0000000181
 31
0.0
  0
LINE
  5
256
330
1F
100
AcDbEntity
  8
0
  6
Continuous
 62
     7
370
    25
100
AcDbLine
 10
116.0000000012
 20
40.0000000181
 30
0.0
 11
115.9939757688
 21
39.9096365326
 31
0.0
  0
LINE
  5
257
330
1F
100
AcDbEntity
  8
0
  6
Continuous
 62
     7
370
    25
100
AcDbLine
 10
113.9974816703
 20
12.6660026248
 30
0.0
 11
114.1769388727
 21
12.6540830906
 31
0.0
  0
LINE
  5
258
330
1F
100
AcDbEntity
  8
0
  6
Continuous
 62
     7
370
    25
100
AcDbLine
 10
114.1769388727
 20
12.6540830906
 30
0.0
 11
114.0
 21
10.0
 31
0.0
  0
LINE
  5
259
330
1F
100
AcDbEntity
  8
0
  6
Continuous
 62
     7
370
    25
100
AcDbLine
 10
114.0
 20
10.0
 30
0.0
 11
107.5
 21
10.0
 31
0.0
  0
LINE
  5
25A
330
1F
100
AcDbEntity
  8
0
  6
Continuous
 62
     7
370
    25
100
AcDbLine
 10
107.5
 20
10.0
 30
0.0
 11
107.5
 21
13.8577119775
 31
0.0
  0
LINE
  5
25B
330
1F
100
AcDbEntity
  8
0
  6
Continuous
 62
     7
370
    25
100
AcDbLine
 10
106.5103816421
 20
40.0
 30
0.0
 11
104.9899743878
 21
40.0
 31
0.0
  0
LINE
  5
25C
330
1F
100
AcDbEntity
  8
0
  6
Continuous
 62
     7
370
    25
100
AcDbLine
 10
102.926612254
 20
12.857301858
 30
0.0
 11
102.5
 21
12.8647484026
 31
0.0
  0
LINE
  5
25D
330
1F
100
AcDbEntity
  8
0
  6
Continuous
 62
     7
370
    25
100
AcDbLine
 10
102.5
 20
12.8647484026
 30
0.0
 11
102.5
 21
10.0
 31
0.0
  0
LINE
  5
25E
330
1F
100
AcDbEntity
  8
0
  6
Continuous
 62
     7
370
    25
100
AcDbLine
 10
102.5
 20
10.0
 30
0.0
 11
97.5
 21
10.0
 31
0.0
  0
LINE
  5
25F
330
1F
100
AcDbEntity
  8
0
  6
Continuous
 62
     7
370
    25
100
AcDbLine
 10
97.5
 20
10.0
 30
0.0
 11
97.5
 21
13.8577119775
 31
0.0
  0
LINE
  5
260
330
1F
100
AcDbEntity
  8
0
  6
Continuous
 62
     7
370
    25
100
AcDbLine
 10
96.5103816421
 20
40.0
 30
0.0
 11
94.9899743878
 21
40.0
 31
0.0
  0
LINE
  5
261
330
1F
100
AcDbEntity
  8
0
  6
Continuous
 62
     7
370
    25
100
AcDbLine
 10
92.926612254
 20
12.857301858
 30
0.0
 11
92.5
 21
12.8647484026
 31
0.0
  0
LINE
  5
262
330
1F
100
AcDbEntity
  8
0
  6
Continuous
 62
     7
370
    25
100
AcDbLine
 10
92.5
 20
12.8647484026
 30
0.0
 11
92.5
 21
10.0
 31
0.0
  0
LINE
  5
263
330
1F
100
AcDbEntity
  8
0
  6
Continuous
 62
     7
370
    25
100
AcDbLine
 10
92.5
 20
10.0
 30
0.0
 11
87.5
 21
10.0
 31
0.0
  0
LINE
  5
264
330
1F
100
AcDbEntity
  8
0
  6
Continuous
 62
     7
370
    25
100
AcDbLine
 10
87.5
 20
10.0
 30
0.0
 11
87.5
 21
13.8577119775
 31
0.0
  0
LINE
  5
265
330
1F
100
AcDbEntity
  8
0
  6
Continuous
 62
     7
370
    25
100
AcDbLine
 10
86.5103816421
 20
40.0
 30
0.0
 11
84.9899743878
 21
40.0
 31
0.0
  0
LINE
  5
266
330
1F
100
AcDbEntity
  8
0
  6
Continuous
 62
     7
370
    25
100
AcDbLine
 10
82.926612254
 20
12.857301858
 30
0.0
 11
82.5
 21
12.8647484026
 31
0.0
  0
LINE
  5
267
330
1F
100
AcDbEntity
  8
0
  6
Continuous
 62
     7
370
    25
100
AcDbLine
 10
82.5
 20
12.8647484026
 30
0.0
 11
82.5
 21
10.0
 31
0.0
  0
LINE
  5
268
330
1F
100
AcDbEntity
  8
0
  6
Continuous
 62
     7
370
    25
100
AcDbLine
 10
82.5
 20
10.0
 30
0.0
 11
77.5
 21
10.0
 31
0.0
  0
LINE
  5
269
330
1F
100
AcDbEntity
  8
0
  6
Continuous
 62
     7
370
    25
100
AcDbLine
 10
77.5
 20
10.0
 30
0.0
 11
77.5
 21
13.8577119775
 31
0.0
  0
LINE
  5
26A
330
1F
100
AcDbEntity
  8
0
  6
Continuous
 62
     7
370
    25
100
AcDbLine
 10
76.5103816421
 20
40.0
 30
0.0
 11
74.9899743878
 21
40.0
 31
0.0
  0
LINE
  5
26B
330
1F
100
AcDbEntity
  8
0
  6
Continuous
 62
     7
370
    25
100
AcDbLine
 10
72.926612254
 20
12.857301858
 30
0.0
 11
72.5
 21
12.8647484026
 31
0.0
  0
LINE
  5
26C
330
1F
100
AcDbEntity
  8
0
  6
Continuous
 62
     7
370
    25
100
AcDbLine
 10
72.5
 20
12.8647484026
 30
0.0
 11
72.5
 21
10.0
 31
0.0
  0
LINE
  5
26D
330
1F
100
AcDbEntity
  8
0
  6
Continuous
 62
     7
370
    25
100
AcDbLine
 10
72.5
 20
10.0
 30
0.0
 11
67.5
 21
10.0
 31
0.0
  0
LINE
  5
26E
330
1F
100
AcDbEntity
  8
0
  6
Continuous
 62
     7
370
    25
100
AcDbLine
 10
67.5
 20
10.0
 30
0.0
 11
67.5
 21
13.8577119775
 31
0.0
  0
LINE
  5
26F
330
1F
100
AcDbEntity
  8
0
  6
Continuous
 62
     7
370
    25
100
AcDbLine
 10
66.5103816421
 20
40.0
 30
0.0
 11
64.9899743878
 21
40.0
 31
0.0
  0
LINE
  5
270
330
1F
100
AcDbEntity
  8
0
  6
Continuous
 62
     7
370
    25
100
AcDbLine
 10
62.926612254
 20
12.857301858
 30
0.0
 11
62.5
 21
12.8647484026
 31
0.0
  0
ARC
  5
271
330
1F
100
AcDbEntity
  8
0
  6
Continuous
 62
     7
370
    25
100
AcDbCircle
 10
56.9
 20
13.8577119775
 30
0.0
 40
0.6000000000000929
100
AcDbArc
 50
0.0
 51
85.3888026941
  0
ARC
  5
272
330
1F
100
AcDbEntity
  8
0
  6
Continuous
 62
     7
370
    25
100
AcDbCircle
 10
57.028629957
 20
15.4525330753
 30
0.0
 40
0.9999999999999084
100
AcDbArc
 50
94.5915187839
 51
265.3888026941
  0
ARC
  5
273
330
1F
100
AcDbEntity
  8
0
  6
Continuous
 62
     7
370
    25
100
AcDbCircle
 10
56.9005477569
 20
17.0473982577
 30
0.0
 40
0.6000000000001046
100
AcDbArc
 50
274.5915187839
 51
87.4084812161
  0
ARC
  5
274
330
1F
100
AcDbEntity
  8
0
  6
Continuous
 62
     7
370
    25
100
AcDbCircle
 10
56.9728919406
 20
18.6457618957
 30
0.0
 40
0.9999999999999006
100
AcDbArc
 50
94.5915187839
 51
267.4084812161
  0
ARC
  5
275
330
1F
100
AcDbEntity
  8
0
  6
Continuous
 62
     7
370
    25
100
AcDbCircle
 10
56.8448097405
 20
20.2406270781
 30
0.0
 40
0.6000000000000961
100
AcDbArc
 50
274.5915187839
 51
87.4084812161
  0
ARC
  5
276
330
1F
100
AcDbEntity
  8
0
  6
Continuous
 62
     7
370
    25
100
AcDbCircle
 10
56.9171539243
 20
21.838990716
 30
0.0
 40
0.9999999999999073
100
AcDbArc
 50
94.5915187839
 51
267.4084812161
  0
ARC
  5
277
330
1F
100
AcDbEntity
  8
0
  6
Continuous
 62
     7
370
    25
100
AcDbCircle
 10
56.7890717241
 20
23.4338558984
 30
0.0
 40
0.6000000000001059
100
AcDbArc
 50
274.5915187839
 51
87.4084812161
  0
ARC
  5
278
330
1F
100
AcDbEntity
  8
0
  6
Continuous
 62
     7
370
    25
100
AcDbCircle
 10
56.8614159079
 20
25.0322195363
 30
0.0
 40
0.9999999999998953
100
AcDbArc
 50
94.5915187839
 51
267.4084812161
  0
ARC
  5
279
330
1F
100
AcDbEntity
  8
0
  6
Continuous
 62
     7
370
    25
100
AcDbCircle
 10
56.7333337077
 20
26.6270847187
 30
0.0
 40
0.6000000000001059
100
AcDbArc
 50
274.5915187839
 51
87.4084812161
  0
ARC
  5
27A
330
1F
100
AcDbEntity
  8
0
  6
Continuous
 62
     7
370
    25
100
AcDbCircle
 10
56.8056778915
 20
28.2254483566
 30
0.0
 40
0.9999999999998999
100
AcDbArc
 50
94.5915187839
 51
267.4084812161
  0
ARC
  5
27B
330
1F
100
AcDbEntity
  8
0
  6
Continuous
 62
     7
370
    25
100
AcDbCircle
 10
56.6775956913
 20
29.820313539
 30
0.0
 40
0.6000000000000986
100
AcDbArc
 50
274.5915187839
 51
87.4084812161
  0
ARC
  5
27C
330
1F
100
AcDbEntity
  8
0
  6
Continuous
 62
     7
370
    25
100
AcDbCircle
 10
56.7499398751
 20
31.418677177
 30
0.0
 40
0.9999999999999134
100
AcDbArc
 50
94.5915187839
 51
267.4084812161
  0
ARC
  5
27D
330
1F
100
AcDbEntity
  8
0
  6
Continuous
 62
     7
370
    25
100
AcDbCircle
 10
56.6218576749
 20
33.0135423594
 30
0.0
 40
0.6000000000001116
100
AcDbArc
 50
274.5915187839
 51
87.4084812161
  0
ARC
  5
27E
330
1F
100
AcDbEntity
  8
0
  6
Continuous
 62
     7
370
    25
100
AcDbCircle
 10
56.6942018587
 20
34.6119059973
 30
0.0
 40
0.9999999999998971
100
AcDbArc
 50
94.5915187839
 51
267.4084812161
  0
ARC
  5
27F
330
1F
100
AcDbEntity
  8
0
  6
Continuous
 62
     7
370
    25
100
AcDbCircle
 10
56.5661196585
 20
36.2067711797
 30
0.0
 40
0.6000000000001028
100
AcDbArc
 50
274.5915187839
 51
87.4084812161
  0
ARC
  5
280
330
1F
100
AcDbEntity
  8
0
  6
Continuous
 62
     7
370
    25
100
AcDbCircle
 10
56.6384638423
 20
37.8051348176
 30
0.0
 40
0.9999999999998938
100
AcDbArc
 50
94.5915187839
 51
267.4084812161
  0
ARC
  5
281
330
1F
100
AcDbEntity
  8
0
  6
Continuous
 62
     7
370
    25
100
AcDbCircle
 10
56.5103816421
 20
39.4
 30
0.0
 40
0.6000000000000827
100
AcDbArc
 50
274.5915187839
 51
90.0
  0
ARC
  5
282
330
1F
100
AcDbEntity
  8
0
  6
Continuous
 62
     7
370
    25
100
AcDbCircle
 10
54.9899743878
 20
39.4
 30
0.0
 40
0.5999999999999982
100
AcDbArc
 50
90.0
 51
179.8738445955
  0
ARC
  5
283
330
1F
100
AcDbEntity
  8
0
  6
Continuous
 62
     7
370
    25
100
AcDbCircle
 10
53.3899782663
 20
39.4035229206
 30
0.0
 40
0.9999999999999944
100
AcDbArc
 50
272.5720697743
 51
359.8738445955
  0
ARC
  5
284
330
1F
100
AcDbEntity
  8
0
  6
Continuous
 62
     7
370
    25
100
AcDbCircle
 10
53.4617798826
 20
37.8051348176
 30
0.0
 40
0.5999999999999661
100
AcDbArc
 50
92.5720697743
 51
265.4279302257
  0
ARC
  5
285
330
1F
100
AcDbEntity
  8
0
  6
Continuous
 62
     7
370
    25
100
AcDbCircle
 10
53.3342390655
 20
36.2102262497
 30
0.0
 40
1.000000000000034
100
AcDbArc
 50
272.5720697743
 51
85.4279302257
  0
ARC
  5
286
330
1F
100
AcDbEntity
  8
0
  6
Continuous
 62
     7
370
    25
100
AcDbCircle
 10
53.4060406818
 20
34.6118381467
 30
0.0
 40
0.5999999999999791
100
AcDbArc
 50
92.5720697743
 51
265.4279302257
  0
ARC
  5
287
330
1F
100
AcDbEntity
  8
0
  6
Continuous
 62
     7
370
    25
100
AcDbCircle
 10
53.2784998648
 20
33.0169295788
 30
0.0
 40
1.000000000000034
100
AcDbArc
 50
272.5720697743
 51
85.4279302257
  0
ARC
  5
288
330
1F
100
AcDbEntity
  8
0
  6
Continuous
 62
     7
370
    25
100
AcDbCircle
 10
53.3503014811
 20
31.4185414757
 30
0.0
 40
0.5999999999999781
100
AcDbArc
 50
92.5720697743
 51
265.4279302257
  0
ARC
  5
289
330
1F
100
AcDbEntity
  8
0
  6
Continuous
 62
     7
370
    25
100
AcDbCircle
 10
53.2227606641
 20
29.8236329078
 30
0.0
 40
1.000000000000023
100
AcDbArc
 50
272.5720697743
 51
85.4279302257
  0
ARC
  5
28A
330
1F
100
AcDbEntity
  8
0
  6
Continuous
 62
     7
370
    25
100
AcDbCircle
 10
53.2945622804
 20
28.2252448048
 30
0.0
 40
0.5999999999999833
100
AcDbArc
 50
92.5720697743
 51
265.4279302257
  0
ARC
  5
28B
330
1F
100
AcDbEntity
  8
0
  6
Continuous
 62
     7
370
    25
100
AcDbCircle
 10
53.1670214634
 20
26.6303362369
 30
0.0
 40
1.000000000000023
100
AcDbArc
 50
272.5720697743
 51
85.4279302257
  0
ARC
  5
28C
330
1F
100
AcDbEntity
  8
0
  6
Continuous
 62
     7
370
    25
100
AcDbCircle
 10
53.2388230797
 20
25.0319481339
 30
0.0
 40
0.5999999999999845
100
AcDbArc
 50
92.5720697743
 51
265.4279302257
  0
ARC
  5
28D
330
1F
100
AcDbEntity
  8
0
  6
Continuous
 62
     7
370
    25
100
AcDbCircle
 10
53.1112822626
 20
23.4370395659
 30
0.0
 40
1.000000000000028
100
AcDbArc
 50
272.5720697743
 51
85.4279302257
  0
ARC
  5
28E
330
1F
100
AcDbEntity
  8
0
  6
Continuous
 62
     7
370
    25
100
AcDbCircle
 10
53.1830838789
 20
21.8386514629
 30
0.0
 40
0.5999999999999798
100
AcDbArc
 50
92.5720697743
 51
265.4279302257
  0
ARC
  5
28F
330
1F
100
AcDbEntity
  8
0
  6
Continuous
 62
     7
370
    25
100
AcDbCircle
 10
53.0555430619
 20
20.243742895
 30
0.0
 40
1.000000000000016
100
AcDbArc
 50
272.5720697743
 51
85.4279302257
  0
ARC
  5
290
330
1F
100
AcDbEntity
  8
0
  6
Continuous
 62
     7
370
    25
100
AcDbCircle
 10
53.1273446782
 20
18.645354792
 30
0.0
 40
0.5999999999999792
100
AcDbArc
 50
92.5720697743
 51
265.4279302257
  0
ARC
  5
291
330
1F
100
AcDbEntity
  8
0
  6
Continuous
 62
     7
370
    25
100
AcDbCircle
 10
52.9998038612
 20
17.0504462241
 30
0.0
 40
1.000000000000024
100
AcDbArc
 50
272.5720697743
 51
85.4279302257
  0
ARC
  5
292
330
1F
100
AcDbEntity
  8
0
  6
Continuous
 62
     7
370
    25
100
AcDbCircle
 10
53.0716054775
 20
15.452058121
 30
0.0
 40
0.599999999999989
100
AcDbArc
 50
92.5720697743
 51
265.4279302257
  0
ARC
  5
293
330
1F
100
AcDbEntity
  8
0
  6
Continuous
 62
     7
370
    25
100
AcDbCircle
 10
52.9440646605
 20
13.8571495531
 30
0.0
 40
1.000000000000008
100
AcDbArc
 50
269.0
 51
85.4279302257
  0
ARC
  5
294
330
1F
100
AcDbEntity
  8
0
  6
Continuous
 62
     7
370
    25
100
AcDbCircle
 10
46.9
 20
13.8577119775
 30
0.0
 40
0.6000000000000312
100
AcDbArc
 50
0.0
 51
85.3888026941
  0
ARC
  5
295
330
1F
100
AcDbEntity
  8
0
  6
Continuous
 62
     7
370
    25
100
AcDbCircle
 10
47.028629957
 20
15.4525330753
 30
0.0
 40
0.9999999999999917
100
AcDbArc
 50
94.5915187839
 51
265.3888026941
  0
ARC
  5
296
330
1F
100
AcDbEntity
  8
0
  6
Continuous
 62
     7
370
    25
100
AcDbCircle
 10
46.9005477569
 20
17.0473982577
 30
0.0
 40
0.6000000000000225
100
AcDbArc
 50
274.5915187839
 51
87.4084812161
  0
ARC
  5
297
330
1F
100
AcDbEntity
  8
0
  6
Continuous
 62
     7
370
    25
100
AcDbCircle
 10
46.9728919406
 20
18.6457618957
 30
0.0
 40
0.9999999999999762
100
AcDbArc
 50
94.5915187839
 51
267.4084812161
  0
ARC
  5
298
330
1F
100
AcDbEntity
  8
0
  6
Continuous
 62
     7
370
    25
100
AcDbCircle
 10
46.8448097405
 20
20.2406270781
 30
0.0
 40
0.6000000000000191
100
AcDbArc
 50
274.5915187839
 51
87.4084812161
  0
ARC
  5
299
330
1F
100
AcDbEntity
  8
0
  6
Continuous
 62
     7
370
    25
100
AcDbCircle
 10
46.9171539243
 20
21.838990716
 30
0.0
 40
0.999999999999996
100
AcDbArc
 50
94.5915187839
 51
267.4084812161
  0
ARC
  5
29A
330
1F
100
AcDbEntity
  8
0
  6
Continuous
 62
     7
370
    25
100
AcDbCircle
 10
46.7890717241
 20
23.4338558984
 30
0.0
 40
0.6000000000000101
100
AcDbArc
 50
274.5915187839
 51
87.4084812161
  0
ARC
  5
29B
330
1F
100
AcDbEntity
  8
0
  6
Continuous
 62
     7
370
    25
100
AcDbCircle
 10
46.8614159079
 20
25.0322195363
 30
0.0
 40
0.9999999999999897
100
AcDbArc
 50
94.5915187839
 51
267.4084812161
  0
ARC
  5
29C
330
1F
100
AcDbEntity
  8
0
  6
Continuous
 62
     7
370
    25
100
AcDbCircle
 10
46.7333337077
 20
26.6270847187
 30
0.0
 40
0.6000000000000079
100
AcDbArc
 50
274.5915187839
 51
87.4084812161
  0
ARC
  5
29D
330
1F
100
AcDbEntity
  8
0
  6
Continuous
 62
     7
370
    25
100
AcDbCircle
 10
46.8056778915
 20
28.2254483566
 30
0.0
 40
0.9999999999999979
100
AcDbArc
 50
94.5915187839
 51
267.4084812161
  0
ARC
  5
29E
330
1F
100
AcDbEntity
  8
0
  6
Continuous
 62
     7
370
    25
100
AcDbCircle
 10
46.6775956913
 20
29.820313539
 30
0.0
 40
0.6000000000000075
100
AcDbArc
 50
274.5915187839
 51
87.4084812161
  0
ARC
  5
29F
330
1F
100
AcDbEntity
  8
0
  6
Continuous
 62
     7
370
    25
100
AcDbCircle
 10
46.7499398751
 20
31.418677177
 30
0.0
 40
1.000000000000004
100
AcDbArc
 50
94.5915187839
 51
267.4084812161
  0
ARC
  5
2A0
330
1F
100
AcDbEntity
  8
0
  6
Continuous
 62
     7
370
    25
100
AcDbCircle
 10
46.6218576749
 20
33.0135423594
 30
0.0
 40
0.6000000000000135
100
AcDbArc
 50
274.5915187839
 51
87.4084812161
  0
ARC
  5
2A1
330
1F
100
AcDbEntity
  8
0
  6
Continuous
 62
     7
370
    25
100
AcDbCircle
 10
46.6942018587
 20
34.6119059973
 30
0.0
 40
0.9999999999999925
100
AcDbArc
 50
94.5915187839
 51
267.4084812161
  0
ARC
  5
2A2
330
1F
100
AcDbEntity
  8
0
  6
Continuous
 62
     7
370
    25
100
AcDbCircle
 10
46.5661196585
 20
36.2067711797
 30
0.0
 40
0.6000000000000095
100
AcDbArc
 50
274.5915187839
 51
87.4084812161
  0
ARC
  5
2A3
330
1F
100
AcDbEntity
  8
0
  6
Continuous
 62
     7
370
    25
100
AcDbCircle
 10
46.6384638423
 20
37.8051348176
 30
0.0
 40
0.9999999999999986
100
AcDbArc
 50
94.5915187839
 51
267.4084812161
  0
ARC
  5
2A4
330
1F
100
AcDbEntity
  8
0
  6
Continuous
 62
     7
370
    25
100
AcDbCircle
 10
46.5103816421
 20
39.4
 30
0.0
 40
0.6000000000000085
100
AcDbArc
 50
274.5915187839
 51
90.0
  0
ARC
  5
2A5
330
1F
100
AcDbEntity
  8
0
  6
Continuous
 62
     7
370
    25
100
AcDbCircle
 10
44.9899743878
 20
39.4
 30
0.0
 40
0.599999999999973
100
AcDbArc
 50
90.0
 51
179.8738445955
  0
ARC
  5
2A6
330
1F
100
AcDbEntity
  8
0
  6
Continuous
 62
     7
370
    25
100
AcDbCircle
 10
43.3899782663
 20
39.4035229206
 30
0.0
 40
1.000000000000016
100
AcDbArc
 50
272.5720697743
 51
359.8738445955
  0
ARC
  5
2A7
330
1F
100
AcDbEntity
  8
0
  6
Continuous
 62
     7
370
    25
100
AcDbCircle
 10
43.4617798826
 20
37.8051348176
 30
0.0
 40
0.5999999999999737
100
AcDbArc
 50
92.5720697743
 51
265.4279302257
  0
ARC
  5
2A8
330
1F
100
AcDbEntity
  8
0
  6
Continuous
 62
     7
370
    25
100
AcDbCircle
 10
43.3342390655
 20
36.2102262497
 30
0.0
 40
1.000000000000028
100
AcDbArc
 50
272.5720697743
 51
85.4279302257
  0
ARC
  5
2A9
330
1F
100
AcDbEntity
  8
0
  6
Continuous
 62
     7
370
    25
100
AcDbCircle
 10
43.4060406818
 20
34.6118381467
 30
0.0
 40
0.5999999999999798
100
AcDbArc
 50
92.5720697743
 51
265.4279302257
  0
ARC
  5
2AA
330
1F
100
AcDbEntity
  8
0
  6
Continuous
 62
     7
370
    25
100
AcDbCircle
 10
43.2784998648
 20
33.0169295788
 30
0.0
 40
1.000000000000034
100
AcDbArc
 50
272.5720697743
 51
85.4279302257
  0
ARC
  5
2AB
330
1F
100
AcDbEntity
  8
0
  6
Continuous
 62
     7
370
    25
100
AcDbCircle
 10
43.3503014811
 20
31.4185414757
 30
0.0
 40
0.5999999999999788
100
AcDbArc
 50
92.5720697743
 51
265.4279302257
  0
ARC
  5
2AC
330
1F
100
AcDbEntity
  8
0
  6
Continuous
 62
     7
370
    25
100
AcDbCircle
 10
43.2227606641
 20
29.8236329078
 30
0.0
 40
1.00000000000003
100
AcDbArc
 50
272.5720697743
 51
85.4279302257
  0
ARC
  5
2AD
330
1F
100
AcDbEntity
  8
0
  6
Continuous
 62
     7
370
    25
100
AcDbCircle
 10
43.2945622804
 20
28.2252448048
 30
0.0
 40
0.5999999999999742
100
AcDbArc
 50
92.5720697743
 51
265.4279302257
  0
ARC
  5
2AE
330
1F
100
AcDbEntity
  8
0
  6
Continuous
 62
     7
370
    25
100
AcDbCircle
 10
43.1670214634
 20
26.6303362369
 30
0.0
 40
1.000000000000038
100
AcDbArc
 50
272.5720697743
 51
85.4279302257
  0
ARC
  5
2AF
330
1F
100
AcDbEntity
  8
0
  6
Continuous
 62
     7
370
    25
100
AcDbCircle
 10
43.2388230797
 20
25.0319481339
 30
0.0
 40
0.599999999999964
100
AcDbArc
 50
92.5720697743
 51
265.4279302257
  0
ARC
  5
2B0
330
1F
100
AcDbEntity
  8
0
  6
Continuous
 62
     7
370
    25
100
AcDbCircle
 10
43.1112822626
 20
23.4370395659
 30
0.0
 40
1.000000000000045
100
AcDbArc
 50
272.5720697743
 51
85.4279302257
  0
ARC
  5
2B1
330
1F
100
AcDbEntity
  8
0
  6
Continuous
 62
     7
370
    25
100
AcDbCircle
 10
43.1830838789
 20
21.8386514629
 30
0.0
 40
0.5999999999999609
100
AcDbArc
 50
92.5720697743
 51
265.4279302257
  0
ARC
  5
2B2
330
1F
100
AcDbEntity
  8
0
  6
Continuous
 62
     7
370
    25
100
AcDbCircle
 10
43.0555430619
 20
20.243742895
 30
0.0
 40
1.000000000000037
100
AcDbArc
 50
272.5720697743
 51
85.4279302257
  0
ARC
  5
2B3
330
1F
100
AcDbEntity
  8
0
  6
Continuous
 62
     7
370
    25
100
AcDbCircle
 10
43.1273446782
 20
18.645354792
 30
0.0
 40
0.5999999999999643
100
AcDbArc
 50
92.5720697743
 51
265.4279302257
  0
ARC
  5
2B4
330
1F
100
AcDbEntity
  8
0
  6
Continuous
 62
     7
370
    25
100
AcDbCircle
 10
42.9998038612
 20
17.0504462241
 30
0.0
 40
1.00000000000004
100
AcDbArc
 50
272.5720697743
 51
85.4279302257
  0
ARC
  5
2B5
330
1F
100
AcDbEntity
  8
0
  6
Continuous
 62
     7
370
    25
100
AcDbCircle
 10
43.0716054775
 20
15.452058121
 30
0.0
 40
0.5999999999999728
100
AcDbArc
 50
92.5720697743
 51
265.4279302257
  0
ARC
  5
2B6
330
1F
100
AcDbEntity
  8
0
  6
Continuous
 62
     7
370
    25
100
AcDbCircle
 10
42.9440646605
 20
13.8571495531
 30
0.0
 40
1.000000000000015
100
AcDbArc
 50
269.0
 51
85.4279302257
  0
ARC
  5
2B7
330
1F
100
AcDbEntity
  8
0
  6
Continuous
 62
     7
370
    25
100
AcDbCircle
 10
36.9
 20
13.8577119775
 30
0.0
 40
0.6000000000000965
100
AcDbArc
 50
0.0
 51
85.3888026941
  0
ARC
  5
2B8
330
1F
100
AcDbEntity
  8
0
  6
Continuous
 62
     7
370
    25
100
AcDbCircle
 10
37.028629957
 20
15.4525330753
 30
0.0
 40
0.9999999999999003
100
AcDbArc
 50
94.5915187839
 51
265.3888026941
  0
ARC
  5
2B9
330
1F
100
AcDbEntity
  8
0
  6
Continuous
 62
     7
370
    25
100
AcDbCircle
 10
36.9005477569
 20
17.0473982577
 30
0.0
 40
0.6000000000001158
100
AcDbArc
 50
274.5915187839
 51
87.4084812161
  0
ARC
  5
2BA
330
1F
100
AcDbEntity
  8
0
  6
Continuous
 62
     7
370
    25
100
AcDbCircle
 10
36.9728919406
 20
18.6457618957
 30
0.0
 40
0.9999999999998918
100
AcDbArc
 50
94.5915187839
 51
267.4084812161
  0
ARC
  5
2BB
330
1F
100
AcDbEntity
  8
0
  6
Continuous
 62
     7
370
    25
100
AcDbCircle
 10
36.8448097405
 20
20.2406270781
 30
0.0
 40
0.600000000000102
100
AcDbArc
 50
274.5915187839
 51
87.4084812161
  0
ARC
  5
2BC
330
1F
100
AcDbEntity
  8
0
  6
Continuous
 62
     7
370
    25
100
AcDbCircle
 10
36.9171539243
 20
21.838990716
 30
0.0
 40
0.9999999999999034
100
AcDbArc
 50
94.5915187839
 51
267.4084812161
  0
ARC
  5
2BD
330
1F
100
AcDbEntity
  8
0
  6
Continuous
 62
     7
370
    25
100
AcDbCircle
 10
36.7890717241
 20
23.4338558984
 30
0.0
 40
0.6000000000001091
100
AcDbArc
 50
274.5915187839
 51
87.4084812161
  0
ARC
  5
2BE
330
1F
100
AcDbEntity
  8
0
  6
Continuous
 62
     7
370
    25
100
AcDbCircle
 10
36.8614159079
 20
25.0322195363
 30
0.0
 40
0.9999999999998929
100
AcDbArc
 50
94.5915187839
 51
267.4084812161
  0
ARC
  5
2BF
330
1F
100
AcDbEntity
  8
0
  6
Continuous
 62
     7
370
    25
100
AcDbCircle
 10
36.7333337077
 20
26.6270847187
 30
0.0
 40
0.6000000000001094
100
AcDbArc
 50
274.5915187839
 51
87.4084812161
  0
ARC
  5
2C0
330
1F
100
AcDbEntity
  8
0
  6
Continuous
 62
     7
370
    25
100
AcDbCircle
 10
36.8056778915
 20
28.2254483566
 30
0.0
 40
0.9999999999998952
100
AcDbArc
 50
94.5915187839
 51
267.4084812161
  0
ARC
  5
2C1
330
1F
100
AcDbEntity
  8
0
  6
Continuous
 62
     7
370
    25
100
AcDbCircle
 10
36.6775956913
 20
29.820313539
 30
0.0
 40
0.6000000000000991
100
AcDbArc
 50
274.5915187839
 51
87.4084812161
  0
ARC
  5
2C2
330
1F
100
AcDbEntity
  8
0
  6
Continuous
 62
     7
370
    25
100
AcDbCircle
 10
36.7499398751
 20
31.418677177
 30
0.0
 40
0.9999999999999118
100
AcDbArc
 50
94.5915187839
 51
267.4084812161
  0
ARC
  5
2C3
330
1F
100
AcDbEntity
  8
0
  6
Continuous
 62
     7
370
    25
100
AcDbCircle
 10
36.6218576749
 20
33.0135423594
 30
0.0
 40
0.6000000000001121
100
AcDbArc
 50
274.5915187839
 51
87.4084812161
  0
ARC
  5
2C4
330
1F
100
AcDbEntity
  8
0
  6
Continuous
 62
     7
370
    25
100
AcDbCircle
 10
36.6942018587
 20
34.6119059973
 30
0.0
 40
0.9999999999999063
100
AcDbArc
 50
94.5915187839
 51
267.4084812161
  0
ARC
  5
2C5
330
1F
100
AcDbEntity
  8
0
  6
Continuous
 62
     7
370
    25
100
AcDbCircle
 10
36.5661196585
 20
36.2067711797
 30
0.0
 40
0.6000000000001069
100
AcDbArc
 50
274.5915187839
 51
87.4084812161
  0
ARC
  5
2C6
330
1F
100
AcDbEntity
  8
0
  6
Continuous
 62
     7
370
    25
100
AcDbCircle
 10
36.6384638423
 20
37.8051348176
 30
0.0
 40
0.9999999999998921
100
AcDbArc
 50
94.5915187839
 51
267.4084812161
  0
ARC
  5
2C7
330
1F
100
AcDbEntity
  8
0
  6
Continuous
 62
     7
370
    25
100
AcDbCircle
 10
36.5103816421
 20
39.4
 30
0.0
 40
0.600000000000082
100
AcDbArc
 50
274.5915187839
 51
90.0
  0
ARC
  5
2C8
330
1F
100
AcDbEntity
  8
0
  6
Continuous
 62
     7
370
    25
100
AcDbCircle
 10
34.9899743878
 20
39.4
 30
0.0
 40
0.599999999999973
100
AcDbArc
 50
90.0
 51
179.8738445955
  0
ARC
  5
2C9
330
1F
100
AcDbEntity
  8
0
  6
Continuous
 62
     7
370
    25
100
AcDbCircle
 10
33.3899782663
 20
39.4035229206
 30
0.0
 40
1.000000000000009
100
AcDbArc
 50
272.5720697743
 51
359.8738445955
  0
ARC
  5
2CA
330
1F
100
AcDbEntity
  8
0
  6
Continuous
 62
     7
370
    25
100
AcDbCircle
 10
33.4617798826
 20
37.8051348176
 30
0.0
 40
0.5999999999999936
100
AcDbArc
 50
92.5720697743
 51
265.4279302257
  0
ARC
  5
2CB
330
1F
100
AcDbEntity
  8
0
  6
Continuous
 62
     7
370
    25
100
AcDbCircle
 10
33.3342390655
 20
36.2102262497
 30
0.0
 40
1.000000000000021
100
AcDbArc
 50
272.5720697743
 51
85.4279302257
  0
ARC
  5
2CC
330
1F
100
AcDbEntity
  8
0
  6
Continuous
 62
     7
370
    25
100
AcDbCircle
 10
33.4060406818
 20
34.6118381467
 30
0.0
 40
0.5999999999999862
100
AcDbArc
 50
92.5720697743
 51
265.4279302257
  0
ARC
  5
2CD
330
1F
100
AcDbEntity
  8
0
  6
Continuous
 62
     7
370
    25
100
AcDbCircle
 10
33.2784998648
 20
33.0169295788
 30
0.0
 40
1.000000000000026
100
AcDbArc
 50
272.5720697743
 51
85.4279302257
  0
ARC
  5
2CE
330
1F
100
AcDbEntity
  8
0
  6
Continuous
 62
     7
370
    25
100
AcDbCircle
 10
33.3503014811
 20
31.4185414757
 30
0.0
 40
0.5999999999999862
100
AcDbArc
 50
92.5720697743
 51
265.4279302257
  0
ARC
  5
2CF
330
1F
100
AcDbEntity
  8
0
  6
Continuous
 62
     7
370
    25
100
AcDbCircle
 10
33.2227606641
 20
29.8236329078
 30
0.0
 40
1.000000000000015
100
AcDbArc
 50
272.5720697743
 51
85.4279302257
  0
ARC
  5
2D0
330
1F
100
AcDbEntity
  8
0
  6
Continuous
 62
     7
370
    25
100
AcDbCircle
 10
33.2945622804
 20
28.2252448048
 30
0.0
 40
0.5999999999999927
100
AcDbArc
 50
92.5720697743
 51
265.4279302257
  0
ARC
  5
2D1
330
1F
100
AcDbEntity
  8
0
  6
Continuous
 62
     7
370
    25
100
AcDbCircle
 10
33.1670214634
 20
26.6303362369
 30
0.0
 40
1.000000000000015
100
AcDbArc
 50
272.5720697743
 51
85.4279302257
  0
ARC
  5
2D2
330
1F
100
AcDbEntity
  8
0
  6
Continuous
 62
     7
370
    25
100
AcDbCircle
 10
33.2388230797
 20
25.0319481339
 30
0.0
 40
0.6000000000000001
100
AcDbArc
 50
92.5720697743
 51
265.4279302257
  0
ARC
  5
2D3
330
1F
100
AcDbEntity
  8
0
  6
Continuous
 62
     7
370
    25
100
AcDbCircle
 10
33.1112822626
 20
23.4370395659
 30
0.0
 40
1.00000000000001
100
AcDbArc
 50
272.5720697743
 51
85.4279302257
  0
ARC
  5
2D4
330
1F
100
AcDbEntity
  8
0
  6
Continuous
 62
     7
370
    25
100
AcDbCircle
 10
33.1830838789
 20
21.8386514629
 30
0.0
 40
0.6000000000000033
100
AcDbArc
 50
92.5720697743
 51
265.4279302257
  0
ARC
  5
2D5
330
1F
100
AcDbEntity
  8
0
  6
Continuous
 62
     7
370
    25
100
AcDbCircle
 10
33.0555430619
 20
20.243742895
 30
0.0
 40
0.9999999999999946
100
AcDbArc
 50
272.5720697743
 51
85.4279302257
  0
ARC
  5
2D6
330
1F
100
AcDbEntity
  8
0
  6
Continuous
 62
     7
370
    25
100
AcDbCircle
 10
33.1273446782
 20
18.645354792
 30
0.0
 40
0.600000000000003
100
AcDbArc
 50
92.5720697743
 51
265.4279302257
  0
ARC
  5
2D7
330
1F
100
AcDbEntity
  8
0
  6
Continuous
 62
     7
370
    25
100
AcDbCircle
 10
32.9998038612
 20
17.0504462241
 30
0.0
 40
1.000000000000006
100
AcDbArc
 50
272.5720697743
 51
85.4279302257
  0
ARC
  5
2D8
330
1F
100
AcDbEntity
  8
0
  6
Continuous
 62
     7
370
    25
100
AcDbCircle
 10
33.0716054775
 20
15.452058121
 30
0.0
 40
0.6000000000000082
100
AcDbArc
 50
92.5720697743
 51
265.4279302257
  0
ARC
  5
2D9
330
1F
100
AcDbEntity
  8
0
  6
Continuous
 62
     7
370
    25
100
AcDbCircle
 10
32.9440646605
 20
13.8571495531
 30
0.0
 40
0.9999999999999877
100
AcDbArc
 50
269.0
 51
85.4279302257
  0
ARC
  5
2DA
330
1F
100
AcDbEntity
  8
0
  6
Continuous
 62
     7
370
    25
100
AcDbCircle
 10
26.9
 20
13.8577119775
 30
0.0
 40
0.600000000000092
100
AcDbArc
 50
0.0
 51
85.3888026941
  0
ARC
  5
2DB
330
1F
100
AcDbEntity
  8
0
  6
Continuous
 62
     7
370
    25
100
AcDbCircle
 10
27.028629957
 20
15.4525330753
 30
0.0
 40
0.9999999999998916
100
AcDbArc
 50
94.5915187839
 51
265.3888026941
  0
ARC
  5
2DC
330
1F
100
AcDbEntity
  8
0
  6
Continuous
 62
     7
370
    25
100
AcDbCircle
 10
26.9005477569
 20
17.0473982577
 30
0.0
 40
0.6000000000001242
100
AcDbArc
 50
274.5915187839
 51
87.4084812161
  0
ARC
  5
2DD
330
1F
100
AcDbEntity
  8
0
  6
Continuous
 62
     7
370
    25
100
AcDbCircle
 10
26.9728919406
 20
18.6457618957
 30
0.0
 40
0.9999999999998818
100
AcDbArc
 50
94.5915187839
 51
267.4084812161
  0
ARC
  5
2DE
330
1F
100
AcDbEntity
  8
0
  6
Continuous
 62
     7
370
    25
100
AcDbCircle
 10
26.8448097405
 20
20.2406270781
 30
0.0
 40
0.6000000000001144
100
AcDbArc
 50
274.5915187839
 51
87.4084812161
  0
ARC
  5
2DF
330
1F
100
AcDbEntity
  8
0
  6
Continuous
 62
     7
370
    25
100
AcDbCircle
 10
26.9171539243
 20
21.838990716
 30
0.0
 40
0.9999999999998925
100
AcDbArc
 50
94.5915187839
 51
267.4084812161
  0
ARC
  5
2E0
330
1F
100
AcDbEntity
  8
0
  6
Continuous
 62
     7
370
    25
100
AcDbCircle
 10
26.7890717241
 20
23.4338558984
 30
0.0
 40
0.6000000000001237
100
AcDbArc
 50
274.5915187839
 51
87.4084812161
  0
ARC
  5
2E1
330
1F
100
AcDbEntity
  8
0
  6
Continuous
 62
     7
370
    25
100
AcDbCircle
 10
26.8614159079
 20
25.0322195363
 30
0.0
 40
0.9999999999998791
100
AcDbArc
 50
94.5915187839
 51
267.4084812161
  0
ARC
  5
2E2
330
1F
100
AcDbEntity
  8
0
  6
Continuous
 62
     7
370
    25
100
AcDbCircle
 10
26.7333337077
 20
26.6270847187
 30
0.0
 40
0.6000000000001222
100
AcDbArc
 50
274.5915187839
 51
87.4084812161
  0
ARC
  5
2E3
330
1F
100
AcDbEntity
  8
0
  6
Continuous
 62
     7
370
    25
100
AcDbCircle
 10
26.8056778915
 20
28.2254483566
 30
0.0
 40
0.9999999999998845
100
AcDbArc
 50
94.5915187839
 51
267.4084812161
  0
ARC
  5
2E4
330
1F
100
AcDbEntity
  8
0
  6
Continuous
 62
     7
370
    25
100
AcDbCircle
 10
26.6775956913
 20
29.820313539
 30
0.0
 40
0.6000000000001137
100
AcDbArc
 50
274.5915187839
 51
87.4084812161
  0
ARC
  5
2E5
330
1F
100
AcDbEntity
  8
0
  6
Continuous
 62
     7
370
    25
100
AcDbCircle
 10
26.7499398751
 20
31.418677177
 30
0.0
 40
0.9999999999998905
100
AcDbArc
 50
94.5915187839
 51
267.4084812161
  0
ARC
  5
2E6
330
1F
100
AcDbEntity
  8
0
  6
Continuous
 62
     7
370
    25
100
AcDbCircle
 10
26.6218576749
 20
33.0135423594
 30
0.0
 40
0.6000000000001333
100
AcDbArc
 50
274.5915187839
 51
87.4084812161
  0
ARC
  5
2E7
330
1F
100
AcDbEntity
  8
0
  6
Continuous
 62
     7
370
    25
100
AcDbCircle
 10
26.6942018587
 20
34.6119059973
 30
0.0
 40
0.9999999999998783
100
AcDbArc
 50
94.5915187839
 51
267.4084812161
  0
ARC
  5
2E8
330
1F
100
AcDbEntity
  8
0
  6
Continuous
 62
     7
370
    25
100
AcDbCircle
 10
26.5661196585
 20
36.2067711797
 30
0.0
 40
0.6000000000001308
100
AcDbArc
 50
274.5915187839
 51
87.4084812161
  0
ARC
  5
2E9
330
1F
100
AcDbEntity
  8
0
  6
Continuous
 62
     7
370
    25
100
AcDbCircle
 10
26.6384638423
 20
37.8051348176
 30
0.0
 40
0.99999999999987
100
AcDbArc
 50
94.5915187839
 51
267.4084812161
  0
ARC
  5
2EA
330
1F
100
AcDbEntity
  8
0
  6
Continuous
 62
     7
370
    25
100
AcDbCircle
 10
26.5103816421
 20
39.4
 30
0.0
 40
0.6000000000000962
100
AcDbArc
 50
274.5915187839
 51
90.0
  0
ARC
  5
2EB
330
1F
100
AcDbEntity
  8
0
  6
Continuous
 62
     7
370
    25
100
AcDbCircle
 10
24.9899743878
 20
39.4
 30
0.0
 40
0.5999999999999626
100
AcDbArc
 50
90.0
 51
179.8738445955
  0
ARC
  5
2EC
330
1F
100
AcDbEntity
  8
0
  6
Continuous
 62
     7
370
    25
100
AcDbCircle
 10
23.3899782663
 20
39.4035229206
 30
0.0
 40
1.000000000000009
100
AcDbArc
 50
272.5720697743
 51
359.8738445955
  0
ARC
  5
2ED
330
1F
100
AcDbEntity
  8
0
  6
Continuous
 62
     7
370
    25
100
AcDbCircle
 10
23.4617798826
 20
37.8051348176
 30
0.0
 40
0.6000000000000082
100
AcDbArc
 50
92.5720697743
 51
265.4279302257
  0
ARC
  5
2EE
330
1F
100
AcDbEntity
  8
0
  6
Continuous
 62
     7
370
    25
100
AcDbCircle
 10
23.3342390655
 20
36.2102262497
 30
0.0
 40
1.000000000000008
100
AcDbArc
 50
272.5720697743
 51
85.4279302257
  0
ARC
  5
2EF
330
1F
100
AcDbEntity
  8
0
  6
Continuous
 62
     7
370
    25
100
AcDbCircle
 10
23.4060406818
 20
34.6118381467
 30
0.0
 40
0.6000000000000015
100
AcDbArc
 50
92.5720697743
 51
265.4279302257
  0
ARC
  5
2F0
330
1F
100
AcDbEntity
  8
0
  6
Continuous
 62
     7
370
    25
100
AcDbCircle
 10
23.2784998648
 20
33.0169295788
 30
0.0
 40
1.000000000000012
100
AcDbArc
 50
272.5720697743
 51
85.4279302257
  0
ARC
  5
2F1
330
1F
100
AcDbEntity
  8
0
  6
Continuous
 62
     7
370
    25
100
AcDbCircle
 10
23.3503014811
 20
31.4185414757
 30
0.0
 40
0.5999999999999965
100
AcDbArc
 50
92.5720697743
 51
265.4279302257
  0
ARC
  5
2F2
330
1F
100
AcDbEntity
  8
0
  6
Continuous
 62
     7
370
    25
100
AcDbCircle
 10
23.2227606641
 20
29.8236329078
 30
0.0
 40
1.000000000000005
100
AcDbArc
 50
272.5720697743
 51
85.4279302257
  0
ARC
  5
2F3
330
1F
100
AcDbEntity
  8
0
  6
Continuous
 62
     7
370
    25
100
AcDbCircle
 10
23.2945622804
 20
28.2252448048
 30
0.0
 40
0.6000000000000035
100
AcDbArc
 50
92.5720697743
 51
265.4279302257
  0
ARC
  5
2F4
330
1F
100
AcDbEntity
  8
0
  6
Continuous
 62
     7
370
    25
100
AcDbCircle
 10
23.1670214634
 20
26.6303362369
 30
0.0
 40
1.000000000000006
100
AcDbArc
 50
272.5720697743
 51
85.4279302257
  0
ARC
  5
2F5
330
1F
100
AcDbEntity
  8
0
  6
Continuous
 62
     7
370
    25
100
AcDbCircle
 10
23.2388230797
 20
25.0319481339
 30
0.0
 40
0.6000000000000079
100
AcDbArc
 50
92.5720697743
 51
265.4279302257
  0
ARC
  5
2F6
330
1F
100
AcDbEntity
  8
0
  6
Continuous
 62
     7
370
    25
100
AcDbCircle
 10
23.1112822626
 20
23.4370395659
 30
0.0
 40
1.000000000000008
100
AcDbArc
 50
272.5720697743
 51
85.4279302257
  0
ARC
  5
2F7
330
1F
100
AcDbEntity
  8
0
  6
Continuous
 62
     7
370
    25
100
AcDbCircle
 10
23.1830838789
 20
21.8386514629
 30
0.0
 40
0.6000000000000042
100
AcDbArc
 50
92.5720697743
 51
265.4279302257
  0
ARC
  5
2F8
330
1F
100
AcDbEntity
  8
0
  6
Continuous
 62
     7
370
    25
100
AcDbCircle
 10
23.0555430619
 20
20.243742895
 30
0.0
 40
0.9999999999999946
100
AcDbArc
 50
272.5720697743
 51
85.4279302257
  0
ARC
  5
2F9
330
1F
100
AcDbEntity
  8
0
  6
Continuous
 62
     7
370
    25
100
AcDbCircle
 10
23.1273446782
 20
18.645354792
 30
0.0
 40
0.6000000000000033
100
AcDbArc
 50
92.5720697743
 51
265.4279302257
  0
ARC
  5
2FA
330
1F
100
AcDbEntity
  8
0
  6
Continuous
 62
     7
370
    25
100
AcDbCircle
 10
22.9998038612
 20
17.0504462241
 30
0.0
 40
1.000000000000004
100
AcDbArc
 50
272.5720697743
 51
85.4279302257
  0
ARC
  5
2FB
330
1F
100
AcDbEntity
  8
0
  6
Continuous
 62
     7
370
    25
100
AcDbCircle
 10
23.0716054775
 20
15.452058121
 30
0.0
 40
0.6000000000000115
100
AcDbArc
 50
92.5720697743
 51
265.4279302257
  0
ARC
  5
2FC
330
1F
100
AcDbEntity
  8
0
  6
Continuous
 62
     7
370
    25
100
AcDbCircle
 10
22.9440646605
 20
13.8571495531
 30
0.0
 40
0.999999999999987
100
AcDbArc
 50
269.0
 51
85.4279302257
  0
ARC
  5
2FD
330
1F
100
AcDbEntity
  8
0
  6
Continuous
 62
     7
370
    25
100
AcDbCircle
 10
16.9
 20
13.8577119775
 30
0.0
 40
0.6000000000000619
100
AcDbArc
 50
360.0
 51
85.3888026941
  0
ARC
  5
2FE
330
1F
100
AcDbEntity
  8
0
  6
Continuous
 62
     7
370
    25
100
AcDbCircle
 10
17.028629957
 20
15.4525330753
 30
0.0
 40
0.999999999999923
100
AcDbArc
 50
94.5915187839
 51
265.3888026941
  0
ARC
  5
2FF
330
1F
100
AcDbEntity
  8
0
  6
Continuous
 62
     7
370
    25
100
AcDbCircle
 10
16.9005477569
 20
17.0473982577
 30
0.0
 40
0.6000000000000957
100
AcDbArc
 50
274.5915187839
 51
87.4084812161
  0
ARC
  5
300
330
1F
100
AcDbEntity
  8
0
  6
Continuous
 62
     7
370
    25
100
AcDbCircle
 10
16.9728919406
 20
18.6457618957
 30
0.0
 40
0.9999999999999065
100
AcDbArc
 50
94.5915187839
 51
267.4084812161
  0
ARC
  5
301
330
1F
100
AcDbEntity
  8
0
  6
Continuous
 62
     7
370
    25
100
AcDbCircle
 10
16.8448097405
 20
20.2406270781
 30
0.0
 40
0.6000000000000847
100
AcDbArc
 50
274.5915187839
 51
87.4084812161
  0
ARC
  5
302
330
1F
100
AcDbEntity
  8
0
  6
Continuous
 62
     7
370
    25
100
AcDbCircle
 10
16.9171539243
 20
21.838990716
 30
0.0
 40
0.9999999999999203
100
AcDbArc
 50
94.5915187839
 51
267.4084812161
  0
ARC
  5
303
330
1F
100
AcDbEntity
  8
0
  6
Continuous
 62
     7
370
    25
100
AcDbCircle
 10
16.7890717241
 20
23.4338558984
 30
0.0
 40
0.6000000000000962
100
AcDbArc
 50
274.5915187839
 51
87.4084812161
  0
ARC
  5
304
330
1F
100
AcDbEntity
  8
0
  6
Continuous
 62
     7
370
    25
100
AcDbCircle
 10
16.8614159079
 20
25.0322195363
 30
0.0
 40
0.9999999999999071
100
AcDbArc
 50
94.5915187839
 51
267.4084812161
  0
ARC
  5
305
330
1F
100
AcDbEntity
  8
0
  6
Continuous
 62
     7
370
    25
100
AcDbCircle
 10
16.7333337077
 20
26.6270847187
 30
0.0
 40
0.6000000000000985
100
AcDbArc
 50
274.5915187839
 51
87.4084812161
  0
ARC
  5
306
330
1F
100
AcDbEntity
  8
0
  6
Continuous
 62
     7
370
    25
100
AcDbCircle
 10
16.8056778915
 20
28.2254483566
 30
0.0
 40
0.9999999999999052
100
AcDbArc
 50
94.5915187839
 51
267.4084812161
  0
ARC
  5
307
330
1F
100
AcDbEntity
  8
0
  6
Continuous
 62
     7
370
    25
100
AcDbCircle
 10
16.6775956913
 20
29.820313539
 30
0.0
 40
0.6000000000000907
100
AcDbArc
 50
274.5915187839
 51
87.4084812161
  0
ARC
  5
308
330
1F
100
AcDbEntity
  8
0
  6
Continuous
 62
     7
370
    25
100
AcDbCircle
 10
16.7499398751
 20
31.418677177
 30
0.0
 40
0.9999999999999161
100
AcDbArc
 50
94.5915187839
 51
267.4084812161
  0
ARC
  5
309
330
1F
100
AcDbEntity
  8
0
  6
Continuous
 62
     7
370
    25
100
AcDbCircle
 10
16.6218576749
 20
33.0135423594
 30
0.0
 40
0.600000000000103
100
AcDbArc
 50
274.5915187839
 51
87.4084812161
  0
ARC
  5
30A
330
1F
100
AcDbEntity
  8
0
  6
Continuous
 62
     7
370
    25
100
AcDbCircle
 10
16.6942018587
 20
34.6119059973
 30
0.0
 40
0.9999999999999134
100
AcDbArc
 50
94.5915187839
 51
267.4084812161
  0
ARC
  5
30B
330
1F
100
AcDbEntity
  8
0
  6
Continuous
 62
     7
370
    25
100
AcDbCircle
 10
16.5661196585
 20
36.2067711797
 30
0.0
 40
0.6000000000000995
100
AcDbArc
 50
274.5915187839
 51
87.4084812161
  0
ARC
  5
30C
330
1F
100
AcDbEntity
  8
0
  6
Continuous
 62
     7
370
    25
100
AcDbCircle
 10
16.6384638423
 20
37.8051348176
 30
0.0
 40
0.9999999999998989
100
AcDbArc
 50
94.5915187839
 51
267.4084812161
  0
ARC
  5
30D
330
1F
100
AcDbEntity
  8
0
  6
Continuous
 62
     7
370
    25
100
AcDbCircle
 10
16.5103816421
 20
39.4
 30
0.0
 40
0.6000000000000796
100
AcDbArc
 50
274.5915187839
 51
90.0
  0
ARC
  5
30E
330
1F
100
AcDbEntity
  8
0
  6
Continuous
 62
     7
370
    25
100
AcDbCircle
 10
14.9899743878
 20
39.4
 30
0.0
 40
0.5999999999999893
100
AcDbArc
 50
90.0
 51
179.8738445955
  0
ARC
  5
30F
330
1F
100
AcDbEntity
  8
0
  6
Continuous
 62
     7
370
    25
100
AcDbCircle
 10
13.3899782663
 20
39.4035229206
 30
0.0
 40
1.000000000000003
100
AcDbArc
 50
272.5720697743
 51
359.8738445955
  0
ARC
  5
310
330
1F
100
AcDbEntity
  8
0
  6
Continuous
 62
     7
370
    25
100
AcDbCircle
 10
13.4617798826
 20
37.8051348176
 30
0.0
 40
0.6000000000000013
100
AcDbArc
 50
92.5720697743
 51
265.4279302257
  0
ARC
  5
311
330
1F
100
AcDbEntity
  8
0
  6
Continuous
 62
     7
370
    25
100
AcDbCircle
 10
13.3342390655
 20
36.2102262497
 30
0.0
 40
1.000000000000013
100
AcDbArc
 50
272.5720697743
 51
85.4279302257
  0
ARC
  5
312
330
1F
100
AcDbEntity
  8
0
  6
Continuous
 62
     7
370
    25
100
AcDbCircle
 10
13.4060406818
 20
34.6118381467
 30
0.0
 40
0.6000000000000071
100
AcDbArc
 50
92.5720697743
 51
265.4279302257
  0
ARC
  5
313
330
1F
100
AcDbEntity
  8
0
  6
Continuous
 62
     7
370
    25
100
AcDbCircle
 10
13.2784998648
 20
33.0169295788
 30
0.0
 40
1.000000000000011
100
AcDbArc
 50
272.5720697743
 51
85.4279302257
  0
ARC
  5
314
330
1F
100
AcDbEntity
  8
0
  6
Continuous
 62
     7
370
    25
100
AcDbCircle
 10
13.3503014811
 20
31.4185414757
 30
0.0
 40
0.5999999999999934
100
AcDbArc
 50
92.5720697743
 51
265.4279302257
  0
ARC
  5
315
330
1F
100
AcDbEntity
  8
0
  6
Continuous
 62
     7
370
    25
100
AcDbCircle
 10
13.2227606641
 20
29.8236329078
 30
0.0
 40
1.000000000000009
100
AcDbArc
 50
272.5720697743
 51
85.4279302257
  0
ARC
  5
316
330
1F
100
AcDbEntity
  8
0
  6
Continuous
 62
     7
370
    25
100
AcDbCircle
 10
13.2945622804
 20
28.2252448048
 30
0.0
 40
0.6000000000000006
100
AcDbArc
 50
92.5720697743
 51
265.4279302257
  0
ARC
  5
317
330
1F
100
AcDbEntity
  8
0
  6
Continuous
 62
     7
370
    25
100
AcDbCircle
 10
13.1670214634
 20
26.6303362369
 30
0.0
 40
1.000000000000009
100
AcDbArc
 50
272.5720697743
 51
85.4279302257
  0
ARC
  5
318
330
1F
100
AcDbEntity
  8
0
  6
Continuous
 62
     7
370
    25
100
AcDbCircle
 10
13.2388230797
 20
25.0319481339
 30
0.0
 40
0.6000000000000012
100
AcDbArc
 50
92.5720697743
 51
265.4279302257
  0
ARC
  5
319
330
1F
100
AcDbEntity
  8
0
  6
Continuous
 62
     7
370
    25
100
AcDbCircle
 10
13.1112822626
 20
23.4370395659
 30
0.0
 40
1.000000000000013
100
AcDbArc
 50
272.5720697743
 51
85.4279302257
  0
ARC
  5
31A
330
1F
100
AcDbEntity
  8
0
  6
Continuous
 62
     7
370
    25
100
AcDbCircle
 10
13.1830838789
 20
21.8386514629
 30
0.0
 40
0.6000000000000005
100
AcDbArc
 50
92.5720697743
 51
265.4279302257
  0
ARC
  5
31B
330
1F
100
AcDbEntity
  8
0
  6
Continuous
 62
     7
370
    25
100
AcDbCircle
 10
13.0555430619
 20
20.243742895
 30
0.0
 40
0.9999999999999971
100
AcDbArc
 50
272.5720697743
 51
85.4279302257
  0
ARC
  5
31C
330
1F
100
AcDbEntity
  8
0
  6
Continuous
 62
     7
370
    25
100
AcDbCircle
 10
13.1273446782
 20
18.645354792
 30
0.0
 40
0.6000000000000001
100
AcDbArc
 50
92.5720697743
 51
265.4279302257
  0
ARC
  5
31D
330
1F
100
AcDbEntity
  8
0
  6
Continuous
 62
     7
370
    25
100
AcDbCircle
 10
12.9998038612
 20
17.0504462241
 30
0.0
 40
1.000000000000006
100
AcDbArc
 50
272.5720697743
 51
85.4279302257
  0
ARC
  5
31E
330
1F
100
AcDbEntity
  8
0
  6
Continuous
 62
     7
370
    25
100
AcDbCircle
 10
13.0716054775
 20
15.452058121
 30
0.0
 40
0.600000000000007
100
AcDbArc
 50
92.5720697743
 51
265.4279302257
  0
ARC
  5
31F
330
1F
100
AcDbEntity
  8
0
  6
Continuous
 62
     7
370
    25
100
AcDbCircle
 10
12.9440646605
 20
13.8571495531
 30
0.0
 40
0.9999999999999915
100
AcDbArc
 50
269.0
 51
85.4279302257
  0
ARC
  5
320
330
1F
100
AcDbEntity
  8
0
  6
Continuous
 62
     7
370
    25
100
AcDbCircle
 10
5.9627539907
 20
13.2646834878
 30
0.0
 40
0.599999999999997
100
AcDbArc
 50
273.7859251627
 51
92.3815310967
  0
ARC
  5
321
330
1F
100
AcDbEntity
  8
0
  6
Continuous
 62
     7
370
    25
100
AcDbCircle
 10
5.8962682449
 20
14.8633015302
 30
0.0
 40
1.000000000000006
100
AcDbArc
 50
95.2466185719
 51
272.3815310967
  0
ARC
  5
322
330
1F
100
AcDbEntity
  8
0
  6
Continuous
 62
     7
370
    25
100
AcDbCircle
 10
5.7499596864
 20
16.4565980518
 30
0.0
 40
0.6000000000000048
100
AcDbArc
 50
275.2466185719
 51
92.3815310967
  0
ARC
  5
323
330
1F
100
AcDbEntity
  8
0
  6
Continuous
 62
     7
370
    25
100
AcDbCircle
 10
5.6834739406
 20
18.0552160942
 30
0.0
 40
0.9999999999999994
100
AcDbArc
 50
95.2466185719
 51
272.3815310967
  0
ARC
  5
324
330
1F
100
AcDbEntity
  8
0
  6
Continuous
 62
     7
370
    25
100
AcDbCircle
 10
5.5371653822
 20
19.6485126158
 30
0.0
 40
0.5999999999999953
100
AcDbArc
 50
275.2466185719
 51
92.3815310967
  0
ARC
  5
325
330
1F
100
AcDbEntity
  8
0
  6
Continuous
 62
     7
370
    25
100
AcDbCircle
 10
5.4706796363
 20
21.2471306583
 30
0.0
 40
1.000000000000014
100
AcDbArc
 50
95.2466185719
 51
272.3815310967
  0
ARC
  5
326
330
1F
100
AcDbEntity
  8
0
  6
Continuous
 62
     7
370
    25
100
AcDbCircle
 10
5.3243710779
 20
22.8404271798
 30
0.0
 40
0.5999999999999845
100
AcDbArc
 50
275.2466185719
 51
92.3815310967
  0
ARC
  5
327
330
1F
100
AcDbEntity
  8
0
  6
Continuous
 62
     7
370
    25
100
AcDbCircle
 10
5.2578853321
 20
24.4390452223
 30
0.0
 40
1.00000000000002
100
AcDbArc
 50
95.2466185719
 51
272.3815310967
  0
ARC
  5
328
330
1F
100
AcDbEntity
  8
0
  6
Continuous
 62
     7
370
    25
100
AcDbCircle
 10
5.1115767736
 20
26.0323417439
 30
0.0
 40
0.599999999999984
100
AcDbArc
 50
275.2466185719
 51
92.3815310967
  0
ARC
  5
329
330
1F
100
AcDbEntity
  8
0
  6
Continuous
 62
     7
370
    25
100
AcDbCircle
 10
5.0450910278
 20
27.6309597863
 30
0.0
 40
1.000000000000025
100
AcDbArc
 50
95.2466185719
 51
272.3815310967
  0
ARC
  5
32A
330
1F
100
AcDbEntity
  8
0
  6
Continuous
 62
     7
370
    25
100
AcDbCircle
 10
4.8987824693
 20
29.2242563079
 30
0.0
 40
0.5999999999999742
100
AcDbArc
 50
275.2466185719
 51
92.3815310967
  0
ARC
  5
32B
330
1F
100
AcDbEntity
  8
0
  6
Continuous
 62
     7
370
    25
100
AcDbCircle
 10
4.8322967235
 20
30.8228743503
 30
0.0
 40
1.000000000000025
100
AcDbArc
 50
95.2466185719
 51
272.3815310967
  0
ARC
  5
32C
330
1F
100
AcDbEntity
  8
0
  6
Continuous
 62
     7
370
    25
100
AcDbCircle
 10
4.6859881651
 20
32.4161708719
 30
0.0
 40
0.5999999999999851
100
AcDbArc
 50
275.2466185719
 51
92.3815310967
  0
ARC
  5
32D
330
1F
100
AcDbEntity
  8
0
  6
Continuous
 62
     7
370
    25
100
AcDbCircle
 10
4.6195024193
 20
34.0147889144
 30
0.0
 40
1.00000000000001
100
AcDbArc
 50
95.2466185719
 51
272.3815310967
  0
ARC
  5
32E
330
1F
100
AcDbEntity
  8
0
  6
Continuous
 62
     7
370
    25
100
AcDbCircle
 10
4.4731938608
 20
35.608085436
 30
0.0
 40
0.5999999999999873
100
AcDbArc
 50
275.2466185719
 51
92.3815310967
  0
ARC
  5
32F
330
1F
100
AcDbEntity
  8
0
  6
Continuous
 62
     7
370
    25
100
AcDbCircle
 10
4.406708115
 20
37.2067034784
 30
0.0
 40
1.000000000000022
100
AcDbArc
 50
95.2466185719
 51
272.3815310967
  0
ARC
  5
330
330
1F
100
AcDbEntity
  8
0
  6
Continuous
 62
     7
370
    25
100
AcDbCircle
 10
4.2603995565
 20
38.8
 30
0.0
 40
0.6000000000004618
100
AcDbArc
 50
275.2466185718
 51
73.3267597196
  0
ARC
  5
331
330
1F
100
AcDbEntity
  8
0
  6
Continuous
 62
     7
370
    25
100
AcDbCircle
 10
4.6046953271
 20
39.9495479209
 30
0.0
 40
0.5999999999999944
100
AcDbArc
 50
183.8140748343
 51
253.3267597196
  0
ARC
  5
332
330
1F
100
AcDbEntity
  8
0
  6
Continuous
 62
     7
370
    25
100
AcDbCircle
 10
115.3953046741
 20
39.9495479389
 30
0.0
 40
0.600000000000059
100
AcDbArc
 50
286.6732402804
 51
356.1859251657
  0
ARC
  5
333
330
1F
100
AcDbEntity
  8
0
  6
Continuous
 62
     7
370
    25
100
AcDbCircle
 10
115.7396004447
 20
38.8000000181
 30
0.0
 40
0.6000000000004923
100
AcDbArc
 50
106.6732402804
 51
264.7533814282
  0
ARC
  5
334
330
1F
100
AcDbEntity
  8
0
  6
Continuous
 62
     7
370
    25
100
AcDbCircle
 10
115.5932918862
 20
37.2067034965
 30
0.0
 40
0.9999999999999994
100
AcDbArc
 50
267.6184689033
 51
84.7533814281
  0
ARC
  5
335
330
1F
100
AcDbEntity
  8
0
  6
Continuous
 62
     7
370
    25
100
AcDbCircle
 10
115.5268061404
 20
35.608085454
 30
0.0
 40
0.6000000000000052
100
AcDbArc
 50
87.6184689033
 51
264.7533814281
  0
ARC
  5
336
330
1F
100
AcDbEntity
  8
0
  6
Continuous
 62
     7
370
    25
100
AcDbCircle
 10
115.3804975819
 20
34.0147889324
 30
0.0
 40
1.0
100
AcDbArc
 50
267.6184689033
 51
84.7533814281
  0
ARC
  5
337
330
1F
100
AcDbEntity
  8
0
  6
Continuous
 62
     7
370
    25
100
AcDbCircle
 10
115.3140118361
 20
32.41617089
 30
0.0
 40
0.6000000000000029
100
AcDbArc
 50
87.6184689033
 51
264.7533814282
  0
ARC
  5
338
330
1F
100
AcDbEntity
  8
0
  6
Continuous
 62
     7
370
    25
100
AcDbCircle
 10
115.1677032777
 20
30.8228743684
 30
0.0
 40
1.000000000000004
100
AcDbArc
 50
267.6184689033
 51
84.7533814281
  0
ARC
  5
339
330
1F
100
AcDbEntity
  8
0
  6
Continuous
 62
     7
370
    25
100
AcDbCircle
 10
115.1012175319
 20
29.224256326
 30
0.0
 40
0.6000000000000046
100
AcDbArc
 50
87.6184689033
 51
264.7533814282
  0
ARC
  5
33A
330
1F
100
AcDbEntity
  8
0
  6
Continuous
 62
     7
370
    25
100
AcDbCircle
 10
114.9549089734
 20
27.6309598044
 30
0.0
 40
1.000000000000001
100
AcDbArc
 50
267.6184689033
 51
84.7533814281
  0
ARC
  5
33B
330
1F
100
AcDbEntity
  8
0
  6
Continuous
 62
     7
370
    25
100
AcDbCircle
 10
114.8884232276
 20
26.0323417619
 30
0.0
 40
0.6000000000000023
100
AcDbArc
 50
87.6184689033
 51
264.7533814281
  0
ARC
  5
33C
330
1F
100
AcDbEntity
  8
0
  6
Continuous
 62
     7
370
    25
100
AcDbCircle
 10
114.7421146691
 20
24.4390452403
 30
0.0
 40
0.9999999999999981
100
AcDbArc
 50
267.6184689033
 51
84.7533814281
  0
ARC
  5
33D
330
1F
100
AcDbEntity
  8
0
  6
Continuous
 62
     7
370
    25
100
AcDbCircle
 10
114.6756289233
 20
22.8404271979
 30
0.0
 40
0.6000000000000041
100
AcDbArc
 50
87.6184689033
 51
264.7533814282
  0
ARC
  5
33E
330
1F
100
AcDbEntity
  8
0
  6
Continuous
 62
     7
370
    25
100
AcDbCircle
 10
114.5293203649
 20
21.2471306763
 30
0.0
 40
1.000000000000008
100
AcDbArc
 50
267.6184689033
 51
84.7533814281
  0
ARC
  5
33F
330
1F
100
AcDbEntity
  8
0
  6
Continuous
 62
     7
370
    25
100
AcDbCircle
 10
114.462834619
 20
19.6485126339
 30
0.0
 40
0.6000000000000032
100
AcDbArc
 50
87.6184689033
 51
264.7533814281
  0
ARC
  5
340
330
1F
100
AcDbEntity
  8
0
  6
Continuous
 62
     7
370
    25
100
AcDbCircle
 10
114.3165260606
 20
18.0552161123
 30
0.0
 40
0.999999999999997
100
AcDbArc
 50
267.6184689033
 51
84.7533814282
  0
ARC
  5
341
330
1F
100
AcDbEntity
  8
0
  6
Continuous
 62
     7
370
    25
100
AcDbCircle
 10
114.2500403148
 20
16.4565980698
 30
0.0
 40
0.6000000000000046
100
AcDbArc
 50
87.6184689033
 51
264.7533814281
  0
ARC
  5
342
330
1F
100
AcDbEntity
  8
0
  6
Continuous
 62
     7
370
    25
100
AcDbCircle
 10
114.1037317563
 20
14.8633015483
 30
0.0
 40
1.000000000000005
100
AcDbArc
 50
267.6184689033
 51
84.7533814281
  0
ARC
  5
343
330
1F
100
AcDbEntity
  8
0
  6
Continuous
 62
     7
370
    25
100
AcDbCircle
 10
114.0372460105
 20
13.2646835058
 30
0.0
 40
0.5999999999999911
100
AcDbArc
 50
87.6184689033
 51
266.2
  0
ARC
  5
344
330
1F
100
AcDbEntity
  8
0
  6
Continuous
 62
     7
370
    25
100
AcDbCircle
 10
106.9
 20
13.8577119775
 30
0.0
 40
0.6000000000000796
100
AcDbArc
 50
0.0
 51
85.3888026941
  0
ARC
  5
345
330
1F
100
AcDbEntity
  8
0
  6
Continuous
 62
     7
370
    25
100
AcDbCircle
 10
107.028629957
 20
15.4525330753
 30
0.0
 40
0.9999999999999084
100
AcDbArc
 50
94.5915187839
 51
265.3888026941
  0
ARC
  5
346
330
1F
100
AcDbEntity
  8
0
  6
Continuous
 62
     7
370
    25
100
AcDbCircle
 10
106.9005477569
 20
17.0473982577
 30
0.0
 40
0.6000000000001005
100
AcDbArc
 50
274.5915187839
 51
87.4084812161
  0
ARC
  5
347
330
1F
100
AcDbEntity
  8
0
  6
Continuous
 62
     7
370
    25
100
AcDbCircle
 10
106.9728919406
 20
18.6457618957
 30
0.0
 40
0.9999999999999017
100
AcDbArc
 50
94.5915187839
 51
267.4084812161
  0
ARC
  5
348
330
1F
100
AcDbEntity
  8
0
  6
Continuous
 62
     7
370
    25
100
AcDbCircle
 10
106.8448097405
 20
20.2406270781
 30
0.0
 40
0.6000000000001015
100
AcDbArc
 50
274.5915187839
 51
87.4084812161
  0
ARC
  5
349
330
1F
100
AcDbEntity
  8
0
  6
Continuous
 62
     7
370
    25
100
AcDbCircle
 10
106.9171539243
 20
21.838990716
 30
0.0
 40
0.9999999999999024
100
AcDbArc
 50
94.5915187839
 51
267.4084812161
  0
ARC
  5
34A
330
1F
100
AcDbEntity
  8
0
  6
Continuous
 62
     7
370
    25
100
AcDbCircle
 10
106.7890717241
 20
23.4338558984
 30
0.0
 40
0.6000000000001087
100
AcDbArc
 50
274.5915187839
 51
87.4084812161
  0
ARC
  5
34B
330
1F
100
AcDbEntity
  8
0
  6
Continuous
 62
     7
370
    25
100
AcDbCircle
 10
106.8614159079
 20
25.0322195363
 30
0.0
 40
0.9999999999999019
100
AcDbArc
 50
94.5915187839
 51
267.4084812161
  0
ARC
  5
34C
330
1F
100
AcDbEntity
  8
0
  6
Continuous
 62
     7
370
    25
100
AcDbCircle
 10
106.7333337077
 20
26.6270847187
 30
0.0
 40
0.6000000000001091
100
AcDbArc
 50
274.5915187839
 51
87.4084812161
  0
ARC
  5
34D
330
1F
100
AcDbEntity
  8
0
  6
Continuous
 62
     7
370
    25
100
AcDbCircle
 10
106.8056778915
 20
28.2254483566
 30
0.0
 40
0.9999999999998958
100
AcDbArc
 50
94.5915187839
 51
267.4084812161
  0
ARC
  5
34E
330
1F
100
AcDbEntity
  8
0
  6
Continuous
 62
     7
370
    25
100
AcDbCircle
 10
106.6775956913
 20
29.820313539
 30
0.0
 40
0.6000000000001104
100
AcDbArc
 50
274.5915187839
 51
87.4084812161
  0
ARC
  5
34F
330
1F
100
AcDbEntity
  8
0
  6
Continuous
 62
     7
370
    25
100
AcDbCircle
 10
106.7499398751
 20
31.418677177
 30
0.0
 40
0.9999999999998794
100
AcDbArc
 50
94.5915187839
 51
267.4084812161
  0
ARC
  5
350
330
1F
100
AcDbEntity
  8
0
  6
Continuous
 62
     7
370
    25
100
AcDbCircle
 10
106.6218576749
 20
33.0135423594
 30
0.0
 40
0.6000000000001404
100
AcDbArc
 50
274.5915187839
 51
87.4084812161
  0
ARC
  5
351
330
1F
100
AcDbEntity
  8
0
  6
Continuous
 62
     7
370
    25
100
AcDbCircle
 10
106.6942018587
 20
34.6119059973
 30
0.0
 40
0.9999999999998698
100
AcDbArc
 50
94.5915187839
 51
267.4084812161
  0
ARC
  5
352
330
1F
100
AcDbEntity
  8
0
  6
Continuous
 62
     7
370
    25
100
AcDbCircle
 10
106.5661196585
 20
36.2067711797
 30
0.0
 40
0.6000000000001423
100
AcDbArc
 50
274.5915187839
 51
87.4084812161
  0
ARC
  5
353
330
1F
100
AcDbEntity
  8
0
  6
Continuous
 62
     7
370
    25
100
AcDbCircle
 10
106.6384638423
 20
37.8051348176
 30
0.0
 40
0.999999999999864
100
AcDbArc
 50
94.5915187839
 51
267.4084812161
  0
ARC
  5
354
330
1F
100
AcDbEntity
  8
0
  6
Continuous
 62
     7
370
    25
100
AcDbCircle
 10
106.5103816421
 20
39.4
 30
0.0
 40
0.6000000000001009
100
AcDbArc
 50
274.5915187839
 51
90.0
  0
ARC
  5
355
330
1F
100
AcDbEntity
  8
0
  6
Continuous
 62
     7
370
    25
100
AcDbCircle
 10
104.9899743878
 20
39.4
 30
0.0
 40
0.6000000000000156
100
AcDbArc
 50
90.0
 51
179.8738445955
  0
ARC
  5
356
330
1F
100
AcDbEntity
  8
0
  6
Continuous
 62
     7
370
    25
100
AcDbCircle
 10
103.3899782663
 20
39.4035229206
 30
0.0
 40
0.9999999999999626
100
AcDbArc
 50
272.5720697743
 51
359.8738445955
  0
ARC
  5
357
330
1F
100
AcDbEntity
  8
0
  6
Continuous
 62
     7
370
    25
100
AcDbCircle
 10
103.4617798826
 20
37.8051348176
 30
0.0
 40
0.6000000000000004
100
AcDbArc
 50
92.5720697743
 51
265.4279302257
  0
ARC
  5
358
330
1F
100
AcDbEntity
  8
0
  6
Continuous
 62
     7
370
    25
100
AcDbCircle
 10
103.3342390655
 20
36.2102262497
 30
0.0
 40
1.000000000000022
100
AcDbArc
 50
272.5720697743
 51
85.4279302257
  0
ARC
  5
359
330
1F
100
AcDbEntity
  8
0
  6
Continuous
 62
     7
370
    25
100
AcDbCircle
 10
103.4060406818
 20
34.6118381467
 30
0.0
 40
0.5999999999999998
100
AcDbArc
 50
92.5720697743
 51
265.4279302257
  0
ARC
  5
35A
330
1F
100
AcDbEntity
  8
0
  6
Continuous
 62
     7
370
    25
100
AcDbCircle
 10
103.2784998648
 20
33.0169295788
 30
0.0
 40
1.000000000000006
100
AcDbArc
 50
272.5720697743
 51
85.4279302257
  0
ARC
  5
35B
330
1F
100
AcDbEntity
  8
0
  6
Continuous
 62
     7
370
    25
100
AcDbCircle
 10
103.3503014811
 20
31.4185414757
 30
0.0
 40
0.6000000000000058
100
AcDbArc
 50
92.5720697743
 51
265.4279302257
  0
ARC
  5
35C
330
1F
100
AcDbEntity
  8
0
  6
Continuous
 62
     7
370
    25
100
AcDbCircle
 10
103.2227606641
 20
29.8236329078
 30
0.0
 40
1.000000000000002
100
AcDbArc
 50
272.5720697743
 51
85.4279302257
  0
ARC
  5
35D
330
1F
100
AcDbEntity
  8
0
  6
Continuous
 62
     7
370
    25
100
AcDbCircle
 10
103.2945622804
 20
28.2252448048
 30
0.0
 40
0.6000000000000301
100
AcDbArc
 50
92.5720697743
 51
265.4279302257
  0
ARC
  5
35E
330
1F
100
AcDbEntity
  8
0
  6
Continuous
 62
     7
370
    25
100
AcDbCircle
 10
103.1670214634
 20
26.6303362369
 30
0.0
 40
0.9999999999999707
100
AcDbArc
 50
272.5720697743
 51
85.4279302257
  0
ARC
  5
35F
330
1F
100
AcDbEntity
  8
0
  6
Continuous
 62
     7
370
    25
100
AcDbCircle
 10
103.2388230797
 20
25.0319481339
 30
0.0
 40
0.6000000000000278
100
AcDbArc
 50
92.5720697743
 51
265.4279302257
  0
ARC
  5
360
330
1F
100
AcDbEntity
  8
0
  6
Continuous
 62
     7
370
    25
100
AcDbCircle
 10
103.1112822626
 20
23.4370395659
 30
0.0
 40
0.999999999999983
100
AcDbArc
 50
272.5720697743
 51
85.4279302257
  0
ARC
  5
361
330
1F
100
AcDbEntity
  8
0
  6
Continuous
 62
     7
370
    25
100
AcDbCircle
 10
103.1830838789
 20
21.8386514629
 30
0.0
 40
0.6000000000000117
100
AcDbArc
 50
92.5720697743
 51
265.4279302257
  0
ARC
  5
362
330
1F
100
AcDbEntity
  8
0
  6
Continuous
 62
     7
370
    25
100
AcDbCircle
 10
103.0555430619
 20
20.243742895
 30
0.0
 40
0.9999999999999941
100
AcDbArc
 50
272.5720697743
 51
85.4279302257
  0
ARC
  5
363
330
1F
100
AcDbEntity
  8
0
  6
Continuous
 62
     7
370
    25
100
AcDbCircle
 10
103.1273446782
 20
18.645354792
 30
0.0
 40
0.6000000000000205
100
AcDbArc
 50
92.5720697743
 51
265.4279302257
  0
ARC
  5
364
330
1F
100
AcDbEntity
  8
0
  6
Continuous
 62
     7
370
    25
100
AcDbCircle
 10
102.9998038612
 20
17.0504462241
 30
0.0
 40
0.9999999999999787
100
AcDbArc
 50
272.5720697743
 51
85.4279302257
  0
ARC
  5
365
330
1F
100
AcDbEntity
  8
0
  6
Continuous
 62
     7
370
    25
100
AcDbCircle
 10
103.0716054775
 20
15.452058121
 30
0.0
 40
0.600000000000032
100
AcDbArc
 50
92.5720697743
 51
265.4279302257
  0
ARC
  5
366
330
1F
100
AcDbEntity
  8
0
  6
Continuous
 62
     7
370
    25
100
AcDbCircle
 10
102.9440646605
 20
13.8571495531
 30
0.0
 40
0.9999999999999791
100
AcDbArc
 50
269.0
 51
85.4279302257
  0
ARC
  5
367
330
1F
100
AcDbEntity
  8
0
  6
Continuous
 62
     7
370
    25
100
AcDbCircle
 10
96.9
 20
13.8577119775
 30
0.0
 40
0.6000000000000251
100
AcDbArc
 50
0.0
 51
85.3888026941
  0
ARC
  5
368
330
1F
100
AcDbEntity
  8
0
  6
Continuous
 62
     7
370
    25
100
AcDbCircle
 10
97.028629957
 20
15.4525330753
 30
0.0
 40
0.9999999999999917
100
AcDbArc
 50
94.5915187839
 51
265.3888026941
  0
ARC
  5
369
330
1F
100
AcDbEntity
  8
0
  6
Continuous
 62
     7
370
    25
100
AcDbCircle
 10
96.9005477569
 20
17.0473982577
 30
0.0
 40
0.6000000000000213
100
AcDbArc
 50
274.5915187839
 51
87.4084812161
  0
ARC
  5
36A
330
1F
100
AcDbEntity
  8
0
  6
Continuous
 62
     7
370
    25
100
AcDbCircle
 10
96.9728919406
 20
18.6457618957
 30
0.0
 40
0.9999999999999769
100
AcDbArc
 50
94.5915187839
 51
267.4084812161
  0
ARC
  5
36B
330
1F
100
AcDbEntity
  8
0
  6
Continuous
 62
     7
370
    25
100
AcDbCircle
 10
96.8448097405
 20
20.2406270781
 30
0.0
 40
0.6000000000000258
100
AcDbArc
 50
274.5915187839
 51
87.4084812161
  0
ARC
  5
36C
330
1F
100
AcDbEntity
  8
0
  6
Continuous
 62
     7
370
    25
100
AcDbCircle
 10
96.9171539243
 20
21.838990716
 30
0.0
 40
0.9999999999999843
100
AcDbArc
 50
94.5915187839
 51
267.4084812161
  0
ARC
  5
36D
330
1F
100
AcDbEntity
  8
0
  6
Continuous
 62
     7
370
    25
100
AcDbCircle
 10
96.7890717241
 20
23.4338558984
 30
0.0
 40
0.600000000000026
100
AcDbArc
 50
274.5915187839
 51
87.4084812161
  0
ARC
  5
36E
330
1F
100
AcDbEntity
  8
0
  6
Continuous
 62
     7
370
    25
100
AcDbCircle
 10
96.8614159079
 20
25.0322195363
 30
0.0
 40
0.9999999999999776
100
AcDbArc
 50
94.5915187839
 51
267.4084812161
  0
ARC
  5
36F
330
1F
100
AcDbEntity
  8
0
  6
Continuous
 62
     7
370
    25
100
AcDbCircle
 10
96.7333337077
 20
26.6270847187
 30
0.0
 40
0.6000000000000295
100
AcDbArc
 50
274.5915187839
 51
87.4084812161
  0
ARC
  5
370
330
1F
100
AcDbEntity
  8
0
  6
Continuous
 62
     7
370
    25
100
AcDbCircle
 10
96.8056778915
 20
28.2254483566
 30
0.0
 40
0.9999999999999711
100
AcDbArc
 50
94.5915187839
 51
267.4084812161
  0
ARC
  5
371
330
1F
100
AcDbEntity
  8
0
  6
Continuous
 62
     7
370
    25
100
AcDbCircle
 10
96.6775956913
 20
29.820313539
 30
0.0
 40
0.6000000000000426
100
AcDbArc
 50
274.5915187839
 51
87.4084812161
  0
ARC
  5
372
330
1F
100
AcDbEntity
  8
0
  6
Continuous
 62
     7
370
    25
100
AcDbCircle
 10
96.7499398751
 20
31.418677177
 30
0.0
 40
0.999999999999954
100
AcDbArc
 50
94.5915187839
 51
267.4084812161
  0
ARC
  5
373
330
1F
100
AcDbEntity
  8
0
  6
Continuous
 62
     7
370
    25
100
AcDbCircle
 10
96.6218576749
 20
33.0135423594
 30
0.0
 40
0.6000000000000625
100
AcDbArc
 50
274.5915187839
 51
87.4084812161
  0
ARC
  5
374
330
1F
100
AcDbEntity
  8
0
  6
Continuous
 62
     7
370
    25
100
AcDbCircle
 10
96.6942018587
 20
34.6119059973
 30
0.0
 40
0.9999999999999498
100
AcDbArc
 50
94.5915187839
 51
267.4084812161
  0
ARC
  5
375
330
1F
100
AcDbEntity
  8
0
  6
Continuous
 62
     7
370
    25
100
AcDbCircle
 10
96.5661196585
 20
36.2067711797
 30
0.0
 40
0.6000000000000578
100
AcDbArc
 50
274.5915187839
 51
87.4084812161
  0
ARC
  5
376
330
1F
100
AcDbEntity
  8
0
  6
Continuous
 62
     7
370
    25
100
AcDbCircle
 10
96.6384638423
 20
37.8051348176
 30
0.0
 40
0.9999999999999422
100
AcDbArc
 50
94.5915187839
 51
267.4084812161
  0
ARC
  5
377
330
1F
100
AcDbEntity
  8
0
  6
Continuous
 62
     7
370
    25
100
AcDbCircle
 10
96.5103816421
 20
39.4
 30
0.0
 40
0.600000000000044
100
AcDbArc
 50
274.5915187839
 51
90.0
  0
ARC
  5
378
330
1F
100
AcDbEntity
  8
0
  6
Continuous
 62
     7
370
    25
100
AcDbCircle
 10
94.9899743878
 20
39.4
 30
0.0
 40
0.5999999999999872
100
AcDbArc
 50
90.0
 51
179.8738445955
  0
ARC
  5
379
330
1F
100
AcDbEntity
  8
0
  6
Continuous
 62
     7
370
    25
100
AcDbCircle
 10
93.3899782663
 20
39.4035229206
 30
0.0
 40
0.9999999999999873
100
AcDbArc
 50
272.5720697743
 51
359.8738445955
  0
ARC
  5
37A
330
1F
100
AcDbEntity
  8
0
  6
Continuous
 62
     7
370
    25
100
AcDbCircle
 10
93.4617798826
 20
37.8051348176
 30
0.0
 40
0.5999999999999998
100
AcDbArc
 50
92.5720697743
 51
265.4279302257
  0
ARC
  5
37B
330
1F
100
AcDbEntity
  8
0
  6
Continuous
 62
     7
370
    25
100
AcDbCircle
 10
93.3342390655
 20
36.2102262497
 30
0.0
 40
1.000000000000021
100
AcDbArc
 50
272.5720697743
 51
85.4279302257
  0
ARC
  5
37C
330
1F
100
AcDbEntity
  8
0
  6
Continuous
 62
     7
370
    25
100
AcDbCircle
 10
93.4060406818
 20
34.6118381467
 30
0.0
 40
0.6000000000000069
100
AcDbArc
 50
92.5720697743
 51
265.4279302257
  0
ARC
  5
37D
330
1F
100
AcDbEntity
  8
0
  6
Continuous
 62
     7
370
    25
100
AcDbCircle
 10
93.2784998648
 20
33.0169295788
 30
0.0
 40
1.000000000000004
100
AcDbArc
 50
272.5720697743
 51
85.4279302257
  0
ARC
  5
37E
330
1F
100
AcDbEntity
  8
0
  6
Continuous
 62
     7
370
    25
100
AcDbCircle
 10
93.3503014811
 20
31.4185414757
 30
0.0
 40
0.600000000000014
100
AcDbArc
 50
92.5720697743
 51
265.4279302257
  0
ARC
  5
37F
330
1F
100
AcDbEntity
  8
0
  6
Continuous
 62
     7
370
    25
100
AcDbCircle
 10
93.2227606641
 20
29.8236329078
 30
0.0
 40
0.9999999999999988
100
AcDbArc
 50
272.5720697743
 51
85.4279302257
  0
ARC
  5
380
330
1F
100
AcDbEntity
  8
0
  6
Continuous
 62
     7
370
    25
100
AcDbCircle
 10
93.2945622804
 20
28.2252448048
 30
0.0
 40
0.6000000000000272
100
AcDbArc
 50
92.5720697743
 51
265.4279302257
  0
ARC
  5
381
330
1F
100
AcDbEntity
  8
0
  6
Continuous
 62
     7
370
    25
100
AcDbCircle
 10
93.1670214634
 20
26.6303362369
 30
0.0
 40
0.9999999999999821
100
AcDbArc
 50
272.5720697743
 51
85.4279302257
  0
ARC
  5
382
330
1F
100
AcDbEntity
  8
0
  6
Continuous
 62
     7
370
    25
100
AcDbCircle
 10
93.2388230797
 20
25.0319481339
 30
0.0
 40
0.6000000000000179
100
AcDbArc
 50
92.5720697743
 51
265.4279302257
  0
ARC
  5
383
330
1F
100
AcDbEntity
  8
0
  6
Continuous
 62
     7
370
    25
100
AcDbCircle
 10
93.1112822626
 20
23.4370395659
 30
0.0
 40
0.9999999999999972
100
AcDbArc
 50
272.5720697743
 51
85.4279302257
  0
ARC
  5
384
330
1F
100
AcDbEntity
  8
0
  6
Continuous
 62
     7
370
    25
100
AcDbCircle
 10
93.1830838789
 20
21.8386514629
 30
0.0
 40
0.5999999999999988
100
AcDbArc
 50
92.5720697743
 51
265.4279302257
  0
ARC
  5
385
330
1F
100
AcDbEntity
  8
0
  6
Continuous
 62
     7
370
    25
100
AcDbCircle
 10
93.0555430619
 20
20.243742895
 30
0.0
 40
1.000000000000004
100
AcDbArc
 50
272.5720697743
 51
85.4279302257
  0
ARC
  5
386
330
1F
100
AcDbEntity
  8
0
  6
Continuous
 62
     7
370
    25
100
AcDbCircle
 10
93.1273446782
 20
18.645354792
 30
0.0
 40
0.6000000000000082
100
AcDbArc
 50
92.5720697743
 51
265.4279302257
  0
ARC
  5
387
330
1F
100
AcDbEntity
  8
0
  6
Continuous
 62
     7
370
    25
100
AcDbCircle
 10
92.9998038612
 20
17.0504462241
 30
0.0
 40
1.000000000000008
100
AcDbArc
 50
272.5720697743
 51
85.4279302257
  0
ARC
  5
388
330
1F
100
AcDbEntity
  8
0
  6
Continuous
 62
     7
370
    25
100
AcDbCircle
 10
93.0716054775
 20
15.452058121
 30
0.0
 40
0.6000000000000086
100
AcDbArc
 50
92.5720697743
 51
265.4279302257
  0
ARC
  5
389
330
1F
100
AcDbEntity
  8
0
  6
Continuous
 62
     7
370
    25
100
AcDbCircle
 10
92.9440646605
 20
13.8571495531
 30
0.0
 40
0.9999999999999941
100
AcDbArc
 50
269.0
 51
85.4279302257
  0
ARC
  5
38A
330
1F
100
AcDbEntity
  8
0
  6
Continuous
 62
     7
370
    25
100
AcDbCircle
 10
86.9
 20
13.8577119775
 30
0.0
 40
0.6000000000000941
100
AcDbArc
 50
0.0
 51
85.3888026941
  0
ARC
  5
38B
330
1F
100
AcDbEntity
  8
0
  6
Continuous
 62
     7
370
    25
100
AcDbCircle
 10
87.028629957
 20
15.4525330753
 30
0.0
 40
0.9999999999999354
100
AcDbArc
 50
94.5915187839
 51
265.3888026941
  0
ARC
  5
38C
330
1F
100
AcDbEntity
  8
0
  6
Continuous
 62
     7
370
    25
100
AcDbCircle
 10
86.9005477569
 20
17.0473982577
 30
0.0
 40
0.6000000000000779
100
AcDbArc
 50
274.5915187839
 51
87.4084812161
  0
ARC
  5
38D
330
1F
100
AcDbEntity
  8
0
  6
Continuous
 62
     7
370
    25
100
AcDbCircle
 10
86.9728919406
 20
18.6457618957
 30
0.0
 40
0.9999999999999242
100
AcDbArc
 50
94.5915187839
 51
267.4084812161
  0
ARC
  5
38E
330
1F
100
AcDbEntity
  8
0
  6
Continuous
 62
     7
370
    25
100
AcDbCircle
 10
86.8448097405
 20
20.2406270781
 30
0.0
 40
0.6000000000000817
100
AcDbArc
 50
274.5915187839
 51
87.4084812161
  0
ARC
  5
38F
330
1F
100
AcDbEntity
  8
0
  6
Continuous
 62
     7
370
    25
100
AcDbCircle
 10
86.9171539243
 20
21.838990716
 30
0.0
 40
0.9999999999999231
100
AcDbArc
 50
94.5915187839
 51
267.4084812161
  0
ARC
  5
390
330
1F
100
AcDbEntity
  8
0
  6
Continuous
 62
     7
370
    25
100
AcDbCircle
 10
86.7890717241
 20
23.4338558984
 30
0.0
 40
0.6000000000000864
100
AcDbArc
 50
274.5915187839
 51
87.4084812161
  0
ARC
  5
391
330
1F
100
AcDbEntity
  8
0
  6
Continuous
 62
     7
370
    25
100
AcDbCircle
 10
86.8614159079
 20
25.0322195363
 30
0.0
 40
0.9999999999999218
100
AcDbArc
 50
94.5915187839
 51
267.4084812161
  0
ARC
  5
392
330
1F
100
AcDbEntity
  8
0
  6
Continuous
 62
     7
370
    25
100
AcDbCircle
 10
86.7333337077
 20
26.6270847187
 30
0.0
 40
0.600000000000082
100
AcDbArc
 50
274.5915187839
 51
87.4084812161
  0
ARC
  5
393
330
1F
100
AcDbEntity
  8
0
  6
Continuous
 62
     7
370
    25
100
AcDbCircle
 10
86.8056778915
 20
28.2254483566
 30
0.0
 40
0.9999999999999218
100
AcDbArc
 50
94.5915187839
 51
267.4084812161
  0
ARC
  5
394
330
1F
100
AcDbEntity
  8
0
  6
Continuous
 62
     7
370
    25
100
AcDbCircle
 10
86.6775956913
 20
29.820313539
 30
0.0
 40
0.6000000000000839
100
AcDbArc
 50
274.5915187839
 51
87.4084812161
  0
ARC
  5
395
330
1F
100
AcDbEntity
  8
0
  6
Continuous
 62
     7
370
    25
100
AcDbCircle
 10
86.7499398751
 20
31.418677177
 30
0.0
 40
0.9999999999999083
100
AcDbArc
 50
94.5915187839
 51
267.4084812161
  0
ARC
  5
396
330
1F
100
AcDbEntity
  8
0
  6
Continuous
 62
     7
370
    25
100
AcDbCircle
 10
86.6218576749
 20
33.0135423594
 30
0.0
 40
0.6000000000001132
100
AcDbArc
 50
274.5915187839
 51
87.4084812161
  0
ARC
  5
397
330
1F
100
AcDbEntity
  8
0
  6
Continuous
 62
     7
370
    25
100
AcDbCircle
 10
86.6942018587
 20
34.6119059973
 30
0.0
 40
0.9999999999999073
100
AcDbArc
 50
94.5915187839
 51
267.4084812161
  0
ARC
  5
398
330
1F
100
AcDbEntity
  8
0
  6
Continuous
 62
     7
370
    25
100
AcDbCircle
 10
86.5661196585
 20
36.2067711797
 30
0.0
 40
0.6000000000001039
100
AcDbArc
 50
274.5915187839
 51
87.4084812161
  0
ARC
  5
399
330
1F
100
AcDbEntity
  8
0
  6
Continuous
 62
     7
370
    25
100
AcDbCircle
 10
86.6384638423
 20
37.8051348176
 30
0.0
 40
0.999999999999906
100
AcDbArc
 50
94.5915187839
 51
267.4084812161
  0
ARC
  5
39A
330
1F
100
AcDbEntity
  8
0
  6
Continuous
 62
     7
370
    25
100
AcDbCircle
 10
86.5103816421
 20
39.4
 30
0.0
 40
0.6000000000000756
100
AcDbArc
 50
274.5915187839
 51
90.0
  0
ARC
  5
39B
330
1F
100
AcDbEntity
  8
0
  6
Continuous
 62
     7
370
    25
100
AcDbCircle
 10
84.9899743878
 20
39.4
 30
0.0
 40
0.6000000000000014
100
AcDbArc
 50
90.0
 51
179.8738445955
  0
ARC
  5
39C
330
1F
100
AcDbEntity
  8
0
  6
Continuous
 62
     7
370
    25
100
AcDbCircle
 10
83.3899782663
 20
39.4035229206
 30
0.0
 40
0.999999999999962
100
AcDbArc
 50
272.5720697743
 51
359.8738445955
  0
ARC
  5
39D
330
1F
100
AcDbEntity
  8
0
  6
Continuous
 62
     7
370
    25
100
AcDbCircle
 10
83.4617798826
 20
37.8051348176
 30
0.0
 40
0.6000000000000092
100
AcDbArc
 50
92.5720697743
 51
265.4279302257
  0
ARC
  5
39E
330
1F
100
AcDbEntity
  8
0
  6
Continuous
 62
     7
370
    25
100
AcDbCircle
 10
83.3342390655
 20
36.2102262497
 30
0.0
 40
0.9999999999999993
100
AcDbArc
 50
272.5720697743
 51
85.4279302257
  0
ARC
  5
39F
330
1F
100
AcDbEntity
  8
0
  6
Continuous
 62
     7
370
    25
100
AcDbCircle
 10
83.4060406818
 20
34.6118381467
 30
0.0
 40
0.6000000000000205
100
AcDbArc
 50
92.5720697743
 51
265.4279302257
  0
ARC
  5
3A0
330
1F
100
AcDbEntity
  8
0
  6
Continuous
 62
     7
370
    25
100
AcDbCircle
 10
83.2784998648
 20
33.0169295788
 30
0.0
 40
0.999999999999991
100
AcDbArc
 50
272.5720697743
 51
85.4279302257
  0
ARC
  5
3A1
330
1F
100
AcDbEntity
  8
0
  6
Continuous
 62
     7
370
    25
100
AcDbCircle
 10
83.3503014811
 20
31.4185414757
 30
0.0
 40
0.6000000000000293
100
AcDbArc
 50
92.5720697743
 51
265.4279302257
  0
ARC
  5
3A2
330
1F
100
AcDbEntity
  8
0
  6
Continuous
 62
     7
370
    25
100
AcDbCircle
 10
83.2227606641
 20
29.8236329078
 30
0.0
 40
0.999999999999978
100
AcDbArc
 50
272.5720697743
 51
85.4279302257
  0
ARC
  5
3A3
330
1F
100
AcDbEntity
  8
0
  6
Continuous
 62
     7
370
    25
100
AcDbCircle
 10
83.2945622804
 20
28.2252448048
 30
0.0
 40
0.6000000000000502
100
AcDbArc
 50
92.5720697743
 51
265.4279302257
  0
ARC
  5
3A4
330
1F
100
AcDbEntity
  8
0
  6
Continuous
 62
     7
370
    25
100
AcDbCircle
 10
83.1670214634
 20
26.6303362369
 30
0.0
 40
0.9999999999999541
100
AcDbArc
 50
272.5720697743
 51
85.4279302257
  0
ARC
  5
3A5
330
1F
100
AcDbEntity
  8
0
  6
Continuous
 62
     7
370
    25
100
AcDbCircle
 10
83.2388230797
 20
25.0319481339
 30
0.0
 40
0.6000000000000536
100
AcDbArc
 50
92.5720697743
 51
265.4279302257
  0
ARC
  5
3A6
330
1F
100
AcDbEntity
  8
0
  6
Continuous
 62
     7
370
    25
100
AcDbCircle
 10
83.1112822626
 20
23.4370395659
 30
0.0
 40
0.9999999999999589
100
AcDbArc
 50
272.5720697743
 51
85.4279302257
  0
ARC
  5
3A7
330
1F
100
AcDbEntity
  8
0
  6
Continuous
 62
     7
370
    25
100
AcDbCircle
 10
83.1830838789
 20
21.8386514629
 30
0.0
 40
0.6000000000000366
100
AcDbArc
 50
92.5720697743
 51
265.4279302257
  0
ARC
  5
3A8
330
1F
100
AcDbEntity
  8
0
  6
Continuous
 62
     7
370
    25
100
AcDbCircle
 10
83.0555430619
 20
20.243742895
 30
0.0
 40
0.9999999999999726
100
AcDbArc
 50
272.5720697743
 51
85.4279302257
  0
ARC
  5
3A9
330
1F
100
AcDbEntity
  8
0
  6
Continuous
 62
     7
370
    25
100
AcDbCircle
 10
83.1273446782
 20
18.645354792
 30
0.0
 40
0.6000000000000424
100
AcDbArc
 50
92.5720697743
 51
265.4279302257
  0
ARC
  5
3AA
330
1F
100
AcDbEntity
  8
0
  6
Continuous
 62
     7
370
    25
100
AcDbCircle
 10
82.9998038612
 20
17.0504462241
 30
0.0
 40
0.9999999999999658
100
AcDbArc
 50
272.5720697743
 51
85.4279302257
  0
ARC
  5
3AB
330
1F
100
AcDbEntity
  8
0
  6
Continuous
 62
     7
370
    25
100
AcDbCircle
 10
83.0716054775
 20
15.452058121
 30
0.0
 40
0.6000000000000487
100
AcDbArc
 50
92.5720697743
 51
265.4279302257
  0
ARC
  5
3AC
330
1F
100
AcDbEntity
  8
0
  6
Continuous
 62
     7
370
    25
100
AcDbCircle
 10
82.9440646605
 20
13.8571495531
 30
0.0
 40
0.9999999999999664
100
AcDbArc
 50
269.0
 51
85.4279302257
  0
ARC
  5
3AD
330
1F
100
AcDbEntity
  8
0
  6
Continuous
 62
     7
370
    25
100
AcDbCircle
 10
76.9
 20
13.8577119775
 30
0.0
 40
0.6000000000000517
100
AcDbArc
 50
0.0
 51
85.3888026941
  0
ARC
  5
3AE
330
1F
100
AcDbEntity
  8
0
  6
Continuous
 62
     7
370
    25
100
AcDbCircle
 10
77.028629957
 20
15.4525330753
 30
0.0
 40
0.9999999999999357
100
AcDbArc
 50
94.5915187839
 51
265.3888026941
  0
ARC
  5
3AF
330
1F
100
AcDbEntity
  8
0
  6
Continuous
 62
     7
370
    25
100
AcDbCircle
 10
76.9005477569
 20
17.0473982577
 30
0.0
 40
0.6000000000000768
100
AcDbArc
 50
274.5915187839
 51
87.4084812161
  0
ARC
  5
3B0
330
1F
100
AcDbEntity
  8
0
  6
Continuous
 62
     7
370
    25
100
AcDbCircle
 10
76.9728919406
 20
18.6457618957
 30
0.0
 40
0.9999999999999231
100
AcDbArc
 50
94.5915187839
 51
267.4084812161
  0
ARC
  5
3B1
330
1F
100
AcDbEntity
  8
0
  6
Continuous
 62
     7
370
    25
100
AcDbCircle
 10
76.8448097405
 20
20.2406270781
 30
0.0
 40
0.6000000000000778
100
AcDbArc
 50
274.5915187839
 51
87.4084812161
  0
ARC
  5
3B2
330
1F
100
AcDbEntity
  8
0
  6
Continuous
 62
     7
370
    25
100
AcDbCircle
 10
76.9171539243
 20
21.838990716
 30
0.0
 40
0.9999999999999298
100
AcDbArc
 50
94.5915187839
 51
267.4084812161
  0
ARC
  5
3B3
330
1F
100
AcDbEntity
  8
0
  6
Continuous
 62
     7
370
    25
100
AcDbCircle
 10
76.7890717241
 20
23.4338558984
 30
0.0
 40
0.600000000000083
100
AcDbArc
 50
274.5915187839
 51
87.4084812161
  0
ARC
  5
3B4
330
1F
100
AcDbEntity
  8
0
  6
Continuous
 62
     7
370
    25
100
AcDbCircle
 10
76.8614159079
 20
25.0322195363
 30
0.0
 40
0.9999999999999206
100
AcDbArc
 50
94.5915187839
 51
267.4084812161
  0
ARC
  5
3B5
330
1F
100
AcDbEntity
  8
0
  6
Continuous
 62
     7
370
    25
100
AcDbCircle
 10
76.7333337077
 20
26.6270847187
 30
0.0
 40
0.6000000000000807
100
AcDbArc
 50
274.5915187839
 51
87.4084812161
  0
ARC
  5
3B6
330
1F
100
AcDbEntity
  8
0
  6
Continuous
 62
     7
370
    25
100
AcDbCircle
 10
76.8056778915
 20
28.2254483566
 30
0.0
 40
0.999999999999929
100
AcDbArc
 50
94.5915187839
 51
267.4084812161
  0
ARC
  5
3B7
330
1F
100
AcDbEntity
  8
0
  6
Continuous
 62
     7
370
    25
100
AcDbCircle
 10
76.6775956913
 20
29.820313539
 30
0.0
 40
0.600000000000092
100
AcDbArc
 50
274.5915187839
 51
87.4084812161
  0
ARC
  5
3B8
330
1F
100
AcDbEntity
  8
0
  6
Continuous
 62
     7
370
    25
100
AcDbCircle
 10
76.7499398751
 20
31.418677177
 30
0.0
 40
0.999999999999905
100
AcDbArc
 50
94.5915187839
 51
267.4084812161
  0
ARC
  5
3B9
330
1F
100
AcDbEntity
  8
0
  6
Continuous
 62
     7
370
    25
100
AcDbCircle
 10
76.6218576749
 20
33.0135423594
 30
0.0
 40
0.6000000000001156
100
AcDbArc
 50
274.5915187839
 51
87.4084812161
  0
ARC
  5
3BA
330
1F
100
AcDbEntity
  8
0
  6
Continuous
 62
     7
370
    25
100
AcDbCircle
 10
76.6942018587
 20
34.6119059973
 30
0.0
 40
0.9999999999998993
100
AcDbArc
 50
94.5915187839
 51
267.4084812161
  0
ARC
  5
3BB
330
1F
100
AcDbEntity
  8
0
  6
Continuous
 62
     7
370
    25
100
AcDbCircle
 10
76.5661196585
 20
36.2067711797
 30
0.0
 40
0.6000000000001069
100
AcDbArc
 50
274.5915187839
 51
87.4084812161
  0
ARC
  5
3BC
330
1F
100
AcDbEntity
  8
0
  6
Continuous
 62
     7
370
    25
100
AcDbCircle
 10
76.6384638423
 20
37.8051348176
 30
0.0
 40
0.9999999999998995
100
AcDbArc
 50
94.5915187839
 51
267.4084812161
  0
ARC
  5
3BD
330
1F
100
AcDbEntity
  8
0
  6
Continuous
 62
     7
370
    25
100
AcDbCircle
 10
76.5103816421
 20
39.4
 30
0.0
 40
0.6000000000000756
100
AcDbArc
 50
274.5915187839
 51
90.0
  0
ARC
  5
3BE
330
1F
100
AcDbEntity
  8
0
  6
Continuous
 62
     7
370
    25
100
AcDbCircle
 10
74.9899743878
 20
39.4
 30
0.0
 40
0.5999999999999872
100
AcDbArc
 50
90.0
 51
179.8738445955
  0
ARC
  5
3BF
330
1F
100
AcDbEntity
  8
0
  6
Continuous
 62
     7
370
    25
100
AcDbCircle
 10
73.3899782663
 20
39.4035229206
 30
0.0
 40
0.9999999999999589
100
AcDbArc
 50
272.5720697743
 51
359.8738445955
  0
ARC
  5
3C0
330
1F
100
AcDbEntity
  8
0
  6
Continuous
 62
     7
370
    25
100
AcDbCircle
 10
73.4617798826
 20
37.8051348176
 30
0.0
 40
0.5999999999999985
100
AcDbArc
 50
92.5720697743
 51
265.4279302257
  0
ARC
  5
3C1
330
1F
100
AcDbEntity
  8
0
  6
Continuous
 62
     7
370
    25
100
AcDbCircle
 10
73.3342390655
 20
36.2102262497
 30
0.0
 40
1.000000000000014
100
AcDbArc
 50
272.5720697743
 51
85.4279302257
  0
ARC
  5
3C2
330
1F
100
AcDbEntity
  8
0
  6
Continuous
 62
     7
370
    25
100
AcDbCircle
 10
73.4060406818
 20
34.6118381467
 30
0.0
 40
0.5999999999999998
100
AcDbArc
 50
92.5720697743
 51
265.4279302257
  0
ARC
  5
3C3
330
1F
100
AcDbEntity
  8
0
  6
Continuous
 62
     7
370
    25
100
AcDbCircle
 10
73.2784998648
 20
33.0169295788
 30
0.0
 40
1.000000000000005
100
AcDbArc
 50
272.5720697743
 51
85.4279302257
  0
ARC
  5
3C4
330
1F
100
AcDbEntity
  8
0
  6
Continuous
 62
     7
370
    25
100
AcDbCircle
 10
73.3503014811
 20
31.4185414757
 30
0.0
 40
0.6000000000000069
100
AcDbArc
 50
92.5720697743
 51
265.4279302257
  0
ARC
  5
3C5
330
1F
100
AcDbEntity
  8
0
  6
Continuous
 62
     7
370
    25
100
AcDbCircle
 10
73.2227606641
 20
29.8236329078
 30
0.0
 40
1.000000000000001
100
AcDbArc
 50
272.5720697743
 51
85.4279302257
  0
ARC
  5
3C6
330
1F
100
AcDbEntity
  8
0
  6
Continuous
 62
     7
370
    25
100
AcDbCircle
 10
73.2945622804
 20
28.2252448048
 30
0.0
 40
0.6000000000000246
100
AcDbArc
 50
92.5720697743
 51
265.4279302257
  0
ARC
  5
3C7
330
1F
100
AcDbEntity
  8
0
  6
Continuous
 62
     7
370
    25
100
AcDbCircle
 10
73.1670214634
 20
26.6303362369
 30
0.0
 40
0.9999999999999885
100
AcDbArc
 50
272.5720697743
 51
85.4279302257
  0
ARC
  5
3C8
330
1F
100
AcDbEntity
  8
0
  6
Continuous
 62
     7
370
    25
100
AcDbCircle
 10
73.2388230797
 20
25.0319481339
 30
0.0
 40
0.6000000000000104
100
AcDbArc
 50
92.5720697743
 51
265.4279302257
  0
ARC
  5
3C9
330
1F
100
AcDbEntity
  8
0
  6
Continuous
 62
     7
370
    25
100
AcDbCircle
 10
73.1112822626
 20
23.4370395659
 30
0.0
 40
1.000000000000007
100
AcDbArc
 50
272.5720697743
 51
85.4279302257
  0
ARC
  5
3CA
330
1F
100
AcDbEntity
  8
0
  6
Continuous
 62
     7
370
    25
100
AcDbCircle
 10
73.1830838789
 20
21.8386514629
 30
0.0
 40
0.5999999999999921
100
AcDbArc
 50
92.5720697743
 51
265.4279302257
  0
ARC
  5
3CB
330
1F
100
AcDbEntity
  8
0
  6
Continuous
 62
     7
370
    25
100
AcDbCircle
 10
73.0555430619
 20
20.243742895
 30
0.0
 40
1.000000000000006
100
AcDbArc
 50
272.5720697743
 51
85.4279302257
  0
ARC
  5
3CC
330
1F
100
AcDbEntity
  8
0
  6
Continuous
 62
     7
370
    25
100
AcDbCircle
 10
73.1273446782
 20
18.645354792
 30
0.0
 40
0.6000000000000046
100
AcDbArc
 50
92.5720697743
 51
265.4279302257
  0
ARC
  5
3CD
330
1F
100
AcDbEntity
  8
0
  6
Continuous
 62
     7
370
    25
100
AcDbCircle
 10
72.9998038612
 20
17.0504462241
 30
0.0
 40
1.000000000000002
100
AcDbArc
 50
272.5720697743
 51
85.4279302257
  0
ARC
  5
3CE
330
1F
100
AcDbEntity
  8
0
  6
Continuous
 62
     7
370
    25
100
AcDbCircle
 10
73.0716054775
 20
15.452058121
 30
0.0
 40
0.6000000000000119
100
AcDbArc
 50
92.5720697743
 51
265.4279302257
  0
ARC
  5
3CF
330
1F
100
AcDbEntity
  8
0
  6
Continuous
 62
     7
370
    25
100
AcDbCircle
 10
72.9440646605
 20
13.8571495531
 30
0.0
 40
0.9999999999999911
100
AcDbArc
 50
269.0
 51
85.4279302257
  0
ARC
  5
3D0
330
1F
100
AcDbEntity
  8
0
  6
Continuous
 62
     7
370
    25
100
AcDbCircle
 10
66.9
 20
13.8577119775
 30
0.0
 40
0.6000000000000512
100
AcDbArc
 50
360.0
 51
85.3888026941
  0
ARC
  5
3D1
330
1F
100
AcDbEntity
  8
0
  6
Continuous
 62
     7
370
    25
100
AcDbCircle
 10
67.028629957
 20
15.4525330753
 30
0.0
 40
0.9999999999999242
100
AcDbArc
 50
94.5915187839
 51
265.3888026941
  0
ARC
  5
3D2
330
1F
100
AcDbEntity
  8
0
  6
Continuous
 62
     7
370
    25
100
AcDbCircle
 10
66.9005477569
 20
17.0473982577
 30
0.0
 40
0.6000000000000839
100
AcDbArc
 50
274.5915187839
 51
87.4084812161
  0
ARC
  5
3D3
330
1F
100
AcDbEntity
  8
0
  6
Continuous
 62
     7
370
    25
100
AcDbCircle
 10
66.9728919406
 20
18.6457618957
 30
0.0
 40
0.9999999999999083
100
AcDbArc
 50
94.5915187839
 51
267.4084812161
  0
ARC
  5
3D4
330
1F
100
AcDbEntity
  8
0
  6
Continuous
 62
     7
370
    25
100
AcDbCircle
 10
66.8448097405
 20
20.2406270781
 30
0.0
 40
0.6000000000000923
100
AcDbArc
 50
274.5915187839
 51
87.4084812161
  0
ARC
  5
3D5
330
1F
100
AcDbEntity
  8
0
  6
Continuous
 62
     7
370
    25
100
AcDbCircle
 10
66.9171539243
 20
21.838990716
 30
0.0
 40
0.9999999999999144
100
AcDbArc
 50
94.5915187839
 51
267.4084812161
  0
ARC
  5
3D6
330
1F
100
AcDbEntity
  8
0
  6
Continuous
 62
     7
370
    25
100
AcDbCircle
 10
66.7890717241
 20
23.4338558984
 30
0.0
 40
0.600000000000098
100
AcDbArc
 50
274.5915187839
 51
87.4084812161
  0
ARC
  5
3D7
330
1F
100
AcDbEntity
  8
0
  6
Continuous
 62
     7
370
    25
100
AcDbCircle
 10
66.8614159079
 20
25.0322195363
 30
0.0
 40
0.9999999999999101
100
AcDbArc
 50
94.5915187839
 51
267.4084812161
  0
ARC
  5
3D8
330
1F
100
AcDbEntity
  8
0
  6
Continuous
 62
     7
370
    25
100
AcDbCircle
 10
66.7333337077
 20
26.6270847187
 30
0.0
 40
0.6000000000000956
100
AcDbArc
 50
274.5915187839
 51
87.4084812161
  0
ARC
  5
3D9
330
1F
100
AcDbEntity
  8
0
  6
Continuous
 62
     7
370
    25
100
AcDbCircle
 10
66.8056778915
 20
28.2254483566
 30
0.0
 40
0.9999999999999065
100
AcDbArc
 50
94.5915187839
 51
267.4084812161
  0
ARC
  5
3DA
330
1F
100
AcDbEntity
  8
0
  6
Continuous
 62
     7
370
    25
100
AcDbCircle
 10
66.6775956913
 20
29.820313539
 30
0.0
 40
0.6000000000001066
100
AcDbArc
 50
274.5915187839
 51
87.4084812161
  0
ARC
  5
3DB
330
1F
100
AcDbEntity
  8
0
  6
Continuous
 62
     7
370
    25
100
AcDbCircle
 10
66.7499398751
 20
31.418677177
 30
0.0
 40
0.9999999999998908
100
AcDbArc
 50
94.5915187839
 51
267.4084812161
  0
ARC
  5
3DC
330
1F
100
AcDbEntity
  8
0
  6
Continuous
 62
     7
370
    25
100
AcDbCircle
 10
66.6218576749
 20
33.0135423594
 30
0.0
 40
0.6000000000001344
100
AcDbArc
 50
274.5915187839
 51
87.4084812161
  0
ARC
  5
3DD
330
1F
100
AcDbEntity
  8
0
  6
Continuous
 62
     7
370
    25
100
AcDbCircle
 10
66.6942018587
 20
34.6119059973
 30
0.0
 40
0.9999999999998846
100
AcDbArc
 50
94.5915187839
 51
267.4084812161
  0
ARC
  5
3DE
330
1F
100
AcDbEntity
  8
0
  6
Continuous
 62
     7
370
    25
100
AcDbCircle
 10
66.5661196585
 20
36.2067711797
 30
0.0
 40
0.6000000000001204
100
AcDbArc
 50
274.5915187839
 51
87.4084812161
  0
ARC
  5
3DF
330
1F
100
AcDbEntity
  8
0
  6
Continuous
 62
     7
370
    25
100
AcDbCircle
 10
66.6384638423
 20
37.8051348176
 30
0.0
 40
0.9999999999998846
100
AcDbArc
 50
94.5915187839
 51
267.4084812161
  0
ARC
  5
3E0
330
1F
100
AcDbEntity
  8
0
  6
Continuous
 62
     7
370
    25
100
AcDbCircle
 10
66.5103816421
 20
39.4
 30
0.0
 40
0.6000000000000867
100
AcDbArc
 50
274.5915187839
 51
90.0
  0
ARC
  5
3E1
330
1F
100
AcDbEntity
  8
0
  6
Continuous
 62
     7
370
    25
100
AcDbCircle
 10
64.9899743878
 20
39.4
 30
0.0
 40
0.5999999999999872
100
AcDbArc
 50
90.0
 51
179.8738445955
  0
ARC
  5
3E2
330
1F
100
AcDbEntity
  8
0
  6
Continuous
 62
     7
370
    25
100
AcDbCircle
 10
63.3899782663
 20
39.4035229206
 30
0.0
 40
0.9999999999999873
100
AcDbArc
 50
272.5720697743
 51
359.8738445955
  0
ARC
  5
3E3
330
1F
100
AcDbEntity
  8
0
  6
Continuous
 62
     7
370
    25
100
AcDbCircle
 10
63.4617798826
 20
37.8051348176
 30
0.0
 40
0.5999999999999995
100
AcDbArc
 50
92.5720697743
 51
265.4279302257
  0
ARC
  5
3E4
330
1F
100
AcDbEntity
  8
0
  6
Continuous
 62
     7
370
    25
100
AcDbCircle
 10
63.3342390655
 20
36.2102262497
 30
0.0
 40
1.000000000000023
100
AcDbArc
 50
272.5720697743
 51
85.4279302257
  0
ARC
  5
3E5
330
1F
100
AcDbEntity
  8
0
  6
Continuous
 62
     7
370
    25
100
AcDbCircle
 10
63.4060406818
 20
34.6118381467
 30
0.0
 40
0.6000000000000004
100
AcDbArc
 50
92.5720697743
 51
265.4279302257
  0
ARC
  5
3E6
330
1F
100
AcDbEntity
  8
0
  6
Continuous
 62
     7
370
    25
100
AcDbCircle
 10
63.2784998648
 20
33.0169295788
 30
0.0
 40
1.000000000000005
100
AcDbArc
 50
272.5720697743
 51
85.4279302257
  0
ARC
  5
3E7
330
1F
100
AcDbEntity
  8
0
  6
Continuous
 62
     7
370
    25
100
AcDbCircle
 10
63.3503014811
 20
31.4185414757
 30
0.0
 40
0.6000000000000046
100
AcDbArc
 50
92.5720697743
 51
265.4279302257
  0
ARC
  5
3E8
330
1F
100
AcDbEntity
  8
0
  6
Continuous
 62
     7
370
    25
100
AcDbCircle
 10
63.2227606641
 20
29.8236329078
 30
0.0
 40
0.9999999999999958
100
AcDbArc
 50
272.5720697743
 51
85.4279302257
  0
ARC
  5
3E9
330
1F
100
AcDbEntity
  8
0
  6
Continuous
 62
     7
370
    25
100
AcDbCircle
 10
63.2945622804
 20
28.2252448048
 30
0.0
 40
0.6000000000000246
100
AcDbArc
 50
92.5720697743
 51
265.4279302257
  0
ARC
  5
3EA
330
1F
100
AcDbEntity
  8
0
  6
Continuous
 62
     7
370
    25
100
AcDbCircle
 10
63.1670214634
 20
26.6303362369
 30
0.0
 40
0.9999999999999839
100
AcDbArc
 50
272.5720697743
 51
85.4279302257
  0
ARC
  5
3EB
330
1F
100
AcDbEntity
  8
0
  6
Continuous
 62
     7
370
    25
100
AcDbCircle
 10
63.2388230797
 20
25.0319481339
 30
0.0
 40
0.6000000000000221
100
AcDbArc
 50
92.5720697743
 51
265.4279302257
  0
ARC
  5
3EC
330
1F
100
AcDbEntity
  8
0
  6
Continuous
 62
     7
370
    25
100
AcDbCircle
 10
63.1112822626
 20
23.4370395659
 30
0.0
 40
0.9999999999999907
100
AcDbArc
 50
272.5720697743
 51
85.4279302257
  0
ARC
  5
3ED
330
1F
100
AcDbEntity
  8
0
  6
Continuous
 62
     7
370
    25
100
AcDbCircle
 10
63.1830838789
 20
21.8386514629
 30
0.0
 40
0.6000000000000063
100
AcDbArc
 50
92.5720697743
 51
265.4279302257
  0
ARC
  5
3EE
330
1F
100
AcDbEntity
  8
0
  6
Continuous
 62
     7
370
    25
100
AcDbCircle
 10
63.0555430619
 20
20.243742895
 30
0.0
 40
0.9999999999999923
100
AcDbArc
 50
272.5720697743
 51
85.4279302257
  0
ARC
  5
3EF
330
1F
100
AcDbEntity
  8
0
  6
Continuous
 62
     7
370
    25
100
AcDbCircle
 10
63.1273446782
 20
18.645354792
 30
0.0
 40
0.6000000000000182
100
AcDbArc
 50
92.5720697743
 51
265.4279302257
  0
ARC
  5
3F0
330
1F
100
AcDbEntity
  8
0
  6
Continuous
 62
     7
370
    25
100
AcDbCircle
 10
62.9998038612
 20
17.0504462241
 30
0.0
 40
0.9999999999999946
100
AcDbArc
 50
272.5720697743
 51
85.4279302257
  0
ARC
  5
3F1
330
1F
100
AcDbEntity
  8
0
  6
Continuous
 62
     7
370
    25
100
AcDbCircle
 10
63.0716054775
 20
15.452058121
 30
0.0
 40
0.6000000000000194
100
AcDbArc
 50
92.5720697743
 51
265.4279302257
  0
ARC
  5
3F2
330
1F
100
AcDbEntity
  8
0
  6
Continuous
 62
     7
370
    25
100
AcDbCircle
 10
62.9440646605
 20
13.8571495531
 30
0.0
 40
0.999999999999987
100
AcDbArc
 50
269.0
 51
85.4279302257
  0
ENDSEC
  0
SECTION
  2
OBJECTS
  0
DICTIONARY
  5
C
330
0
100
AcDbDictionary
281
     1
  3
ACAD_GROUP
350
D
  3
ACAD_LAYOUT
350
1A
  3
ACAD_MLINESTYLE
350
17
  3
ACAD_PLOTSETTINGS
350
19
  3
ACAD_PLOTSTYLENAME
350
E
  3
ACAD_SCALELIST
350
47
  3
DWGPROPS
350
3F3
  0
DICTIONARY
  5
D
102
{ACAD_REACTORS
330
C
102
}
330
C
100
AcDbDictionary
281
     1
  0
DICTIONARY
  5
1A
102
{ACAD_REACTORS
330
C
102
}
330
C
100
AcDbDictionary
281
     1
  3
Layout1
350
1E
  3
Layout2
350
26
  3
Model
350
22
  0
DICTIONARY
  5
17
102
{ACAD_REACTORS
330
C
102
}
330
C
100
AcDbDictionary
281
     1
  3
Standard
350
18
  0
DICTIONARY
  5
19
102
{ACAD_REACTORS
330
C
102
}
330
C
100
AcDbDictionary
281
     1
  0
ACDBDICTIONARYWDFLT
  5
E
102
{ACAD_REACTORS
330
C
102
}
330
C
100
AcDbDictionary
281
     1
  3
Normal
350
F
100
AcDbDictionaryWithDefault
340
F
  0
DICTIONARY
  5
47
102
{ACAD_REACTORS
330
C
102
}
330
C
100
AcDbDictionary
281
     1
  3
A0
350
48
  3
A1
350
49
  3
A2
350
4A
  3
A3
350
4B
  3
A4
350
4C
  3
A5
350
4D
  3
A6
350
4E
  3
A7
350
4F
  3
A8
350
50
  3
A9
350
51
  3
B0
350
52
  3
B1
350
53
  3
B2
350
54
  3
B3
350
55
  3
B4
350
56
  3
B5
350
57
  3
B6
350
58
  3
B7
350
59
  3
B8
350
5A
  3
B9
350
5B
  3
C0
350
5C
  3
C1
350
5D
  3
C2
350
5E
  3
C3
350
5F
  3
C4
350
60
  3
C5
350
61
  3
C6
350
62
  3
C7
350
63
  3
C8
350
64
  3
C9
350
65
  3
D0
350
66
  3
D1
350
67
  3
D2
350
68
  0
XRECORD
  5
3F3
102
{ACAD_REACTORS
330
C
102
}
330
C
100
AcDbXrecord
280
     1
  1
DWGPROPS COOKIE
  2

  3

  4

  6

  7

  8
DD22
  9

300
=
301
=
302
=
303
=
304
=
305
=
306
=
307
=
308
=
309
=
 40
0.0
 41
2459481.451241701
 42
2459481.451268704
  1

 90
        0
  0
LAYOUT
  5
1E
102
{ACAD_REACTORS
330
1A
102
}
330
1A
100
AcDbPlotSettings
  1

  2
none_device
  4

  6

 40
0.0
 41
0.0
 42
0.0
 43
0.0
 44
0.0
 45
0.0
 46
0.0
 47
0.0
 48
0.0
 49
0.0
140
0.0
141
0.0
142
1.0
143
1.0
 70
   688
 72
     1
 73
     0
 74
     5
  7

 75
    16
147
1.0
148
0.0
149
0.0
100
AcDbLayout
  1
Layout1
 70
     1
 71
     1
 10
0.0
 20
0.0
 11
420.0
 21
297.0
 12
0.0
 22
0.0
 32
0.0
 14
1.0000000000E+20
 24
1.0000000000E+20
 34
1.0000000000E+20
 15
-1.0000000000E+20
 25
-1.0000000000E+20
 35
-1.0000000000E+20
146
0.0
 13
0.0
 23
0.0
 33
0.0
 16
1.0
 26
0.0
 36
0.0
 17
0.0
 27
1.0
 37
0.0
 76
     0
330
1B
  0
LAYOUT
  5
26
102
{ACAD_REACTORS
330
1A
102
}
330
1A
100
AcDbPlotSettings
  1

  2
none_device
  4

  6

 40
0.0
 41
0.0
 42
0.0
 43
0.0
 44
0.0
 45
0.0
 46
0.0
 47
0.0
 48
0.0
 49
0.0
140
0.0
141
0.0
142
1.0
143
1.0
 70
   688
 72
     1
 73
     0
 74
     5
  7

 75
    16
147
1.0
148
0.0
149
0.0
100
AcDbLayout
  1
Layout2
 70
     1
 71
     2
 10
0.0
 20
0.0
 11
0.0
 21
0.0
 12
0.0
 22
0.0
 32
0.0
 14
0.0
 24
0.0
 34
0.0
 15
0.0
 25
0.0
 35
0.0
146
0.0
 13
0.0
 23
0.0
 33
0.0
 16
1.0
 26
0.0
 36
0.0
 17
0.0
 27
1.0
 37
0.0
 76
     0
330
23
  0
LAYOUT
  5
22
102
{ACAD_REACTORS
330
1A
102
}
330
1A
100
AcDbPlotSettings
  1

  2
none_device
  4
ANSI_A_(11.00_x_8.50_Inches)
  6

 40
6.35
 41
19.05
 42
6.35000508
 43
19.05000254
 44
279.4
 45
215.9
 46
-4.95300254
 47
42.7989987092
 48
0.0
 49
0.0
140
0.0
141
0.0
142
0.09075
143
1.0
 70
  1696
 72
     0
 73
     0
 74
     0
  7

 75
     0
147
0.0179189148
148
-1300.4909072572
149
0.0
100
AcDbLayout
  1
Model
 70
     1
 71
     0
 10
0.0
 20
0.0
 11
420.0
 21
297.0
 12
0.0
 22
0.0
 32
0.0
 14
0.0
 24
0.0
 34
0.0
 15
120.0
 25
40.0000000181
 35
0.0
146
0.0
 13
0.0
 23
0.0
 33
0.0
 16
1.0
 26
0.0
 36
0.0
 17
0.0
 27
1.0
 37
0.0
 76
     0
330
1F
331
29
  0
MLINESTYLE
  5
18
102
{ACAD_REACTORS
330
17
102
}
330
17
100
AcDbMlineStyle
  2
Standard
 70
     0
  3

 62
   256
 51
90.0
 52
90.0
 71
     2
 49
0.5
 62
   256
  6
BYLAYER
 49
-0.5
 62
   256
  6
BYLAYER
  0
ACDBPLACEHOLDER
  5
F
102
{ACAD_REACTORS
330
E
102
}
330
E
  0
SCALE
  5
48
102
{ACAD_REACTORS
330
47
102
}
330
47
100
AcDbScale
 70
     0
300
1:1
140
1.0
141
1.0
290
     1
  0
SCALE
  5
49
102
{ACAD_REACTORS
330
47
102
}
330
47
100
AcDbScale
 70
     0
300
1:2
140
1.0
141
2.0
290
     0
  0
SCALE
  5
4A
102
{ACAD_REACTORS
330
47
102
}
330
47
100
AcDbScale
 70
     0
300
1:4
140
1.0
141
4.0
290
     0
  0
SCALE
  5
4B
102
{ACAD_REACTORS
330
47
102
}
330
47
100
AcDbScale
 70
     0
300
1:5
140
1.0
141
5.0
290
     0
  0
SCALE
  5
4C
102
{ACAD_REACTORS
330
47
102
}
330
47
100
AcDbScale
 70
     0
300
1:8
140
1.0
141
8.0
290
     0
  0
SCALE
  5
4D
102
{ACAD_REACTORS
330
47
102
}
330
47
100
AcDbScale
 70
     0
300
1:10
140
1.0
141
10.0
290
     0
  0
SCALE
  5
4E
102
{ACAD_REACTORS
330
47
102
}
330
47
100
AcDbScale
 70
     0
300
1:16
140
1.0
141
16.0
290
     0
  0
SCALE
  5
4F
102
{ACAD_REACTORS
330
47
102
}
330
47
100
AcDbScale
 70
     0
300
1:20
140
1.0
141
20.0
290
     0
  0
SCALE
  5
50
102
{ACAD_REACTORS
330
47
102
}
330
47
100
AcDbScale
 70
     0
300
1:30
140
1.0
141
30.0
290
     0
  0
SCALE
  5
51
102
{ACAD_REACTORS
330
47
102
}
330
47
100
AcDbScale
 70
     0
300
1:40
140
1.0
141
40.0
290
     0
  0
SCALE
  5
52
102
{ACAD_REACTORS
330
47
102
}
330
47
100
AcDbScale
 70
     0
300
1:50
140
1.0
141
50.0
290
     0
  0
SCALE
  5
53
102
{ACAD_REACTORS
330
47
102
}
330
47
100
AcDbScale
 70
     0
300
1:100
140
1.0
141
100.0
290
     0
  0
SCALE
  5
54
102
{ACAD_REACTORS
330
47
102
}
330
47
100
AcDbScale
 70
     0
300
2:1
140
2.0
141
1.0
290
     0
  0
SCALE
  5
55
102
{ACAD_REACTORS
330
47
102
}
330
47
100
AcDbScale
 70
     0
300
4:1
140
4.0
141
1.0
290
     0
  0
SCALE
  5
56
102
{ACAD_REACTORS
330
47
102
}
330
47
100
AcDbScale
 70
     0
300
8:1
140
8.0
141
1.0
290
     0
  0
SCALE
  5
57
102
{ACAD_REACTORS
330
47
102
}
330
47
100
AcDbScale
 70
     0
300
10:1
140
10.0
141
1.0
290
     0
  0
SCALE
  5
58
102
{ACAD_REACTORS
330
47
102
}
330
47
100
AcDbScale
 70
     0
300
100:1
140
100.0
141
1.0
290
     0
  0
SCALE
  5
59
102
{ACAD_REACTORS
330
47
102
}
330
47
100
AcDbScale
 70
     0
300
1/128" = 1'-0"
140
0.0078125
141
12.0
290
     0
  0
SCALE
  5
5A
102
{ACAD_REACTORS
330
47
102
}
330
47
100
AcDbScale
 70
     0
300
1/64" = 1'-0"
140
0.015625
141
12.0
290
     0
  0
SCALE
  5
5B
102
{ACAD_REACTORS
330
47
102
}
330
47
100
AcDbScale
 70
     0
300
1/32" = 1'-0"
140
0.03125
141
12.0
290
     0
  0
SCALE
  5
5C
102
{ACAD_REACTORS
330
47
102
}
330
47
100
AcDbScale
 70
     0
300
1/16" = 1'-0"
140
0.0625
141
12.0
290
     0
  0
SCALE
  5
5D
102
{ACAD_REACTORS
330
47
102
}
330
47
100
AcDbScale
 70
     0
300
3/32" = 1'-0"
140
0.09375
141
12.0
290
     0
  0
SCALE
  5
5E
102
{ACAD_REACTORS
330
47
102
}
330
47
100
AcDbScale
 70
     0
300
1/8" = 1'-0"
140
0.125
141
12.0
290
     0
  0
SCALE
  5
5F
102
{ACAD_REACTORS
330
47
102
}
330
47
100
AcDbScale
 70
     0
300
3/16" = 1'-0"
140
0.1875
141
12.0
290
     0
  0
SCALE
  5
60
102
{ACAD_REACTORS
330
47
102
}
330
47
100
AcDbScale
 70
     0
300
1/4" = 1'-0"
140
0.25
141
12.0
290
     0
  0
SCALE
  5
61
102
{ACAD_REACTORS
330
47
102
}
330
47
100
AcDbScale
 70
     0
300
3/8" = 1'-0"
140
0.375
141
12.0
290
     0
  0
SCALE
  5
62
102
{ACAD_REACTORS
330
47
102
}
330
47
100
AcDbScale
 70
     0
300
1/2" = 1'-0"
140
0.5
141
12.0
290
     0
  0
SCALE
  5
63
102
{ACAD_REACTORS
330
47
102
}
330
47
100
AcDbScale
 70
     0
300
3/4" = 1'-0"
140
0.75
141
12.0
290
     0
  0
SCALE
  5
64
102
{ACAD_REACTORS
330
47
102
}
330
47
100
AcDbScale
 70
     0
300
1" = 1'-0"
140
1.0
141
12.0
290
     0
  0
SCALE
  5
65
102
{ACAD_REACTORS
330
47
102
}
330
47
100
AcDbScale
 70
     0
300
1-1/2" = 1'-0"
140
1.5
141
12.0
290
     0
  0
SCALE
  5
66
102
{ACAD_REACTORS
330
47
102
}
330
47
100
AcDbScale
 70
     0
300
3" = 1'-0"
140
3.0
141
12.0
290
     0
  0
SCALE
  5
67
102
{ACAD_REACTORS
330
47
102
}
330
47
100
AcDbScale
 70
     0
300
6" = 1'-0"
140
6.0
141
12.0
290
     0
  0
SCALE
  5
68
102
{ACAD_REACTORS
330
47
102
}
330
47
100
AcDbScale
 70
     0
300
1'-0" = 1'-0"
140
12.0
141
12.0
290
     0
  0
ENDSEC
  0
EOF
