  0
SECTION
  2
HEADER
  9
$ACADVER
  1
AC1015
  9
$ACADMAINTVER
 70
     6
  9
$DWGCODEPAGE
  3
ANSI_1252
  9
$INSBASE
 10
0.0
 20
0.0
 30
0.0
  9
$EXTMIN
 10
-22.5
 20
-33.756513616
 30
0.0
  9
$EXTMAX
 10
22.4409605083
 20
26.2959996997
 30
0.0
  9
$LIMMIN
 10
0.0
 20
0.0
  9
$LIMMAX
 10
420.0
 20
297.0
  9
$ORTHOMODE
 70
     0
  9
$REGENMODE
 70
     1
  9
$FILLMODE
 70
     1
  9
$QTEXTMODE
 70
     0
  9
$MIRRTEXT
 70
     1
  9
$LTSCALE
 40
1.0
  9
$ATTMODE
 70
     1
  9
$TEXTSIZE
 40
3.5
  9
$TRACEWID
 40
1.0
  9
$TEXTSTYLE
  7
Standard
  9
$CLAYER
  8
0
  9
$CELTYPE
  6
ByLayer
  9
$CECOLOR
 62
   256
  9
$CELTSCALE
 40
1.0
  9
$DISPSILH
 70
     0
  9
$DIMSCALE
 40
1.0
  9
$DIMASZ
 40
3.302
  9
$DIMEXO
 40
0.0
  9
$DIMDLI
 40
3.75
  9
$DIMRND
 40
0.0
  9
$DIMDLE
 40
0.0
  9
$DIMEXE
 40
1.0
  9
$DIMTP
 40
0.0
  9
$DIMTM
 40
0.0
  9
$DIMTXT
 40
3.5
  9
$DIMCEN
 40
2.5
  9
$DIMTSZ
 40
0.0
  9
$DIMTOL
 70
     0
  9
$DIMLIM
 70
     0
  9
$DIMTIH
 70
     1
  9
$DIMTOH
 70
     1
  9
$DIMSE1
 70
     0
  9
$DIMSE2
 70
     0
  9
$DIMTAD
 70
     1
  9
$DIMZIN
 70
     1
  9
$DIMBLK
  1

  9
$DIMASO
 70
     1
  9
$DIMSHO
 70
     1
  9
$DIMPOST
  1

  9
$DIMAPOST
  1

  9
$DIMALT
 70
     0
  9
$DIMALTD
 70
     3
  9
$DIMALTF
 40
0.0393700787
  9
$DIMLFAC
 40
1.0
  9
$DIMTOFL
 70
     1
  9
$DIMTVP
 40
0.0
  9
$DIMTIX
 70
     0
  9
$DIMSOXD
 70
     0
  9
$DIMSAH
 70
     0
  9
$DIMBLK1
  1

  9
$DIMBLK2
  1

  9
$DIMSTYLE
  2
ISO-25
  9
$DIMCLRD
 70
     0
  9
$DIMCLRE
 70
     0
  9
$DIMCLRT
 70
     0
  9
$DIMTFAC
 40
1.0
  9
$DIMGAP
 40
1.524
  9
$DIMJUST
 70
     0
  9
$DIMSD1
 70
     0
  9
$DIMSD2
 70
     0
  9
$DIMTOLJ
 70
     0
  9
$DIMTZIN
 70
     1
  9
$DIMALTZ
 70
     0
  9
$DIMALTTZ
 70
     0
  9
$DIMUPT
 70
     0
  9
$DIMDEC
 70
     2
  9
$DIMTDEC
 70
     2
  9
$DIMALTU
 70
     2
  9
$DIMALTTD
 70
     3
  9
$DIMTXSTY
  7
Standard
  9
$DIMAUNIT
 70
     0
  9
$DIMADEC
 70
     2
  9
$DIMALTRND
 40
0.0
  9
$DIMAZIN
 70
     0
  9
$DIMDSEP
 70
    44
  9
$DIMATFIT
 70
     3
  9
$DIMFRAC
 70
     0
  9
$DIMLDRBLK
  1

  9
$DIMLUNIT
 70
     2
  9
$DIMLWD
 70
    -2
  9
$DIMLWE
 70
    -2
  9
$DIMTMOVE
 70
     0
  9
$LUNITS
 70
     2
  9
$LUPREC
 70
     2
  9
$SKETCHINC
 40
1.0
  9
$FILLETRAD
 40
10.0
  9
$AUNITS
 70
     0
  9
$AUPREC
 70
     2
  9
$MENU
  1
.
  9
$ELEVATION
 40
0.0
  9
$PELEVATION
 40
0.0
  9
$THICKNESS
 40
0.0
  9
$LIMCHECK
 70
     0
  9
$CHAMFERA
 40
0.0
  9
$CHAMFERB
 40
0.0
  9
$CHAMFERC
 40
0.0
  9
$CHAMFERD
 40
0.0
  9
$SKPOLY
 70
     0
  9
$TDCREATE
 40
2459478.416206076
  9
$TDUCREATE
 40
2459478.332872743
  9
$TDUPDATE
 40
2459478.416234144
  9
$TDUUPDATE
 40
2459478.33290081
  9
$TDINDWG
 40
0.0000000116
  9
$TDUSRTIMER
 40
0.0000000116
  9
$USRTIMER
 70
     1
  9
$ANGBASE
 50
0.0
  9
$ANGDIR
 70
     0
  9
$PDMODE
 70
     0
  9
$PDSIZE
 40
-1.0
  9
$PLINEWID
 40
0.0
  9
$SPLFRAME
 70
     0
  9
$SPLINETYPE
 70
     6
  9
$SPLINESEGS
 70
     8
  9
$HANDSEED
  5
374
  9
$SURFTAB1
 70
     6
  9
$SURFTAB2
 70
     6
  9
$SURFTYPE
 70
     6
  9
$SURFU
 70
     6
  9
$SURFV
 70
     6
  9
$UCSBASE
  2

  9
$UCSNAME
  2

  9
$UCSORG
 10
0.0
 20
0.0
 30
0.0
  9
$UCSXDIR
 10
1.0
 20
0.0
 30
0.0
  9
$UCSYDIR
 10
0.0
 20
1.0
 30
0.0
  9
$UCSORTHOREF
  2

  9
$UCSORTHOVIEW
 70
     0
  9
$UCSORGTOP
 10
0.0
 20
0.0
 30
0.0
  9
$UCSORGBOTTOM
 10
0.0
 20
0.0
 30
0.0
  9
$UCSORGLEFT
 10
0.0
 20
0.0
 30
0.0
  9
$UCSORGRIGHT
 10
0.0
 20
0.0
 30
0.0
  9
$UCSORGFRONT
 10
0.0
 20
0.0
 30
0.0
  9
$UCSORGBACK
 10
0.0
 20
0.0
 30
0.0
  9
$PUCSBASE
  2

  9
$PUCSNAME
  2

  9
$PUCSORG
 10
0.0
 20
0.0
 30
0.0
  9
$PUCSXDIR
 10
1.0
 20
0.0
 30
0.0
  9
$PUCSYDIR
 10
0.0
 20
1.0
 30
0.0
  9
$PUCSORTHOREF
  2

  9
$PUCSORTHOVIEW
 70
     0
  9
$PUCSORGTOP
 10
0.0
 20
0.0
 30
0.0
  9
$PUCSORGBOTTOM
 10
0.0
 20
0.0
 30
0.0
  9
$PUCSORGLEFT
 10
0.0
 20
0.0
 30
0.0
  9
$PUCSORGRIGHT
 10
0.0
 20
0.0
 30
0.0
  9
$PUCSORGFRONT
 10
0.0
 20
0.0
 30
0.0
  9
$PUCSORGBACK
 10
0.0
 20
0.0
 30
0.0
  9
$USERI1
 70
     0
  9
$USERI2
 70
     0
  9
$USERI3
 70
     0
  9
$USERI4
 70
     0
  9
$USERI5
 70
     0
  9
$USERR1
 40
0.0
  9
$USERR2
 40
0.0
  9
$USERR3
 40
0.0
  9
$USERR4
 40
0.0
  9
$USERR5
 40
0.0
  9
$WORLDVIEW
 70
     1
  9
$SHADEDGE
 70
     3
  9
$SHADEDIF
 70
    70
  9
$TILEMODE
 70
     1
  9
$MAXACTVP
 70
    64
  9
$PINSBASE
 10
0.0
 20
0.0
 30
0.0
  9
$PLIMCHECK
 70
     0
  9
$PEXTMIN
 10
1.0000000000E+20
 20
1.0000000000E+20
 30
1.0000000000E+20
  9
$PEXTMAX
 10
-1.0000000000E+20
 20
-1.0000000000E+20
 30
-1.0000000000E+20
  9
$PLIMMIN
 10
0.0
 20
0.0
  9
$PLIMMAX
 10
420.0
 20
297.0
  9
$UNITMODE
 70
     0
  9
$VISRETAIN
 70
     1
  9
$PLINEGEN
 70
     0
  9
$PSLTSCALE
 70
     1
  9
$TREEDEPTH
 70
  3020
  9
$CMLSTYLE
  2
Standard
  9
$CMLJUST
 70
     0
  9
$CMLSCALE
 40
20.0
  9
$PROXYGRAPHICS
 70
     1
  9
$MEASUREMENT
 70
     1
  9
$CELWEIGHT
370
    -1
  9
$ENDCAPS
280
     0
  9
$JOINSTYLE
280
     0
  9
$LWDISPLAY
290
     1
  9
$INSUNITS
 70
     4
  9
$HYPERLINKBASE
  1

  9
$STYLESHEET
  1

  9
$XEDIT
290
     1
  9
$CEPSNTYPE
380
     0
  9
$PSTYLEMODE
290
     1
  9
$FINGERPRINTGUID
  2
{85e4e913-99d5-48ae-a7f8-fef152dbf512}
  9
$VERSIONGUID
  2
{FAEB1C32-E019-11D5-929B-00C0DF256EC4}
  9
$EXTNAMES
290
     1
  9
$PSVPSCALE
 40
0.0
  9
$OLESTARTUP
290
     0
  0
ENDSEC
  0
SECTION
  2
CLASSES
  0
CLASS
  1
ACDBDICTIONARYWDFLT
  2
AcDbDictionaryWithDefault
  3
ObjectDBX Classes
 90
        0
280
     0
281
     0
  0
CLASS
  1
VISUALSTYLE
  2
AcDbVisualStyle
  3
ObjectDBX Classes
 90
     4095
280
     0
281
     0
  0
CLASS
  1
MATERIAL
  2
AcDbMaterial
  3
ObjectDBX Classes
 90
     1153
280
     0
281
     0
  0
CLASS
  1
SCALE
  2
AcDbScale
  3
ObjectDBX Classes
 90
     1153
280
     0
281
     0
  0
CLASS
  1
TABLESTYLE
  2
AcDbTableStyle
  3
ObjectDBX Classes
 90
     4095
280
     0
281
     0
  0
CLASS
  1
MLEADERSTYLE
  2
AcDbMLeaderStyle
  3
ACDB_MLEADERSTYLE_CLASS
 90
     4095
280
     0
281
     0
  0
CLASS
  1
SUN
  2
AcDbSun
  3
SCENEOE
 90
     1153
280
     0
281
     0
  0
CLASS
  1
ACDBPLACEHOLDER
  2
AcDbPlaceHolder
  3
ObjectDBX Classes
 90
        0
280
     0
281
     0
  0
CLASS
  1
LAYOUT
  2
AcDbLayout
  3
ObjectDBX Classes
 90
        0
280
     0
281
     0
  0
ENDSEC
  0
SECTION
  2
TABLES
  0
TABLE
  2
VPORT
  5
8
330
0
100
AcDbSymbolTable
 70
     1
  0
VPORT
  5
29
330
8
100
AcDbSymbolTableRecord
100
AcDbViewportTableRecord
  2
*Active
 70
     0
 10
0.0
 20
0.0
 11
1.0
 21
1.0
 12
-0.0295197459
 22
-3.7302569581
 13
0.0
 23
0.0
 14
10.0
 24
10.0
 15
10.0
 25
10.0
 16
0.0
 26
0.0
 36
1.0
 17
0.0
 27
0.0
 37
0.0
 40
61.253563582
 41
0.7483610265
 42
50.0
 43
0.0
 44
0.0
 50
0.0
 51
0.0
 71
     0
 72
   100
 73
     1
 74
     3
 75
     0
 76
     0
 77
     0
 78
     0
281
     0
 65
     1
110
0.0
120
0.0
130
0.0
111
1.0
121
0.0
131
0.0
112
0.0
122
1.0
132
0.0
 79
     0
146
0.0
  0
ENDTAB
  0
TABLE
  2
LTYPE
  5
5
330
0
100
AcDbSymbolTable
 70
     6
  0
LTYPE
  5
14
330
5
100
AcDbSymbolTableRecord
100
AcDbLinetypeTableRecord
  2
ByBlock
 70
     0
  3

 72
    65
 73
     0
 40
0.0
  0
LTYPE
  5
15
330
5
100
AcDbSymbolTableRecord
100
AcDbLinetypeTableRecord
  2
ByLayer
 70
     0
  3

 72
    65
 73
     0
 40
0.0
  0
LTYPE
  5
16
330
5
100
AcDbSymbolTableRecord
100
AcDbLinetypeTableRecord
  2
Continuous
 70
     0
  3
Solid line
 72
    65
 73
     0
 40
0.0
  0
LTYPE
  5
6E
330
5
100
AcDbSymbolTableRecord
100
AcDbLinetypeTableRecord
  2
HIDDEN
 70
     0
  3
Hidden __ __ __ __ __ __ __ __ __ __ __ __ __ __
 72
    65
 73
     2
 40
1.905
 49
1.27
 74
     0
 49
-0.635
 74
     0
  0
LTYPE
  5
6F
330
5
100
AcDbSymbolTableRecord
100
AcDbLinetypeTableRecord
  2
PHANTOM
 70
     0
  3
Phantom ______  __  __  ______  __  __  ______
 72
    65
 73
     6
 40
12.7
 49
6.35
 74
     0
 49
-1.27
 74
     0
 49
1.27
 74
     0
 49
-1.27
 74
     0
 49
1.27
 74
     0
 49
-1.27
 74
     0
  0
LTYPE
  5
70
330
5
100
AcDbSymbolTableRecord
100
AcDbLinetypeTableRecord
  2
CENTER
 70
     0
  3
Center ____ _ ____ _ ____ _ ____ _ ____ _ ____
 72
    65
 73
     4
 40
10.16
 49
6.35
 74
     0
 49
-1.27
 74
     0
 49
1.27
 74
     0
 49
-1.27
 74
     0
  0
LTYPE
  5
71
330
5
100
AcDbSymbolTableRecord
100
AcDbLinetypeTableRecord
  2
CENTERX2
 70
     0
  3
Center (2x) ________  __  ________  __  _____
 72
    65
 73
     4
 40
20.32
 49
12.7
 74
     0
 49
-2.54
 74
     0
 49
2.54
 74
     0
 49
-2.54
 74
     0
  0
LTYPE
  5
72
330
5
100
AcDbSymbolTableRecord
100
AcDbLinetypeTableRecord
  2
DOT2
 70
     0
  3
Dot (.5x) ........................................
 72
    65
 73
     2
 40
0.635
 49
0.0
 74
     0
 49
-0.635
 74
     0
  0
ENDTAB
  0
TABLE
  2
LAYER
  5
2
330
0
100
AcDbSymbolTable
 70
     1
  0
LAYER
  5
10
330
2
100
AcDbSymbolTableRecord
100
AcDbLayerTableRecord
  2
0
 70
     0
 62
     7
  6
Continuous
370
    -3
390
F
  0
ENDTAB
  0
TABLE
  2
STYLE
  5
3
330
0
100
AcDbSymbolTable
 70
     1
  0
STYLE
  5
11
330
3
100
AcDbSymbolTableRecord
100
AcDbTextStyleTableRecord
  2
Standard
 70
     0
 40
0.0
 41
1.0
 50
0.0
 71
     0
 42
3.5
  3
txt
  4

  0
ENDTAB
  0
TABLE
  2
VIEW
  5
6
330
0
100
AcDbSymbolTable
 70
     0
  0
ENDTAB
  0
TABLE
  2
UCS
  5
7
330
0
100
AcDbSymbolTable
 70
     0
  0
ENDTAB
  0
TABLE
  2
APPID
  5
9
330
0
100
AcDbSymbolTable
 70
     1
  0
APPID
  5
12
330
9
100
AcDbSymbolTableRecord
100
AcDbRegAppTableRecord
  2
ACAD
 70
     0
  0
ENDTAB
  0
TABLE
  2
DIMSTYLE
  5
A
330
0
100
AcDbSymbolTable
 70
     1
100
AcDbDimStyleTable
  0
DIMSTYLE
105
27
330
A
100
AcDbSymbolTableRecord
100
AcDbDimStyleTableRecord
  2
ISO-25
 70
     0
 41
2.5
 42
0.625
 43
3.75
 44
1.25
 73
     0
 74
     0
 77
     1
 78
     8
140
2.5
141
2.5
143
0.0393700787
147
0.625
171
     3
172
     1
178
     0
271
     2
272
     2
274
     3
278
    44
283
     0
284
     8
340
11
  0
ENDTAB
  0
TABLE
  2
BLOCK_RECORD
  5
1
330
0
100
AcDbSymbolTable
 70
     1
  0
BLOCK_RECORD
  5
1F
330
1
100
AcDbSymbolTableRecord
100
AcDbBlockTableRecord
  2
*Model_Space
340
22
  0
BLOCK_RECORD
  5
1B
330
1
100
AcDbSymbolTableRecord
100
AcDbBlockTableRecord
  2
*Paper_Space
340
1E
  0
BLOCK_RECORD
  5
23
330
1
100
AcDbSymbolTableRecord
100
AcDbBlockTableRecord
  2
*Paper_Space0
340
26
  0
ENDTAB
  0
ENDSEC
  0
SECTION
  2
BLOCKS
  0
BLOCK
  5
20
330
1F
100
AcDbEntity
  8
0
100
AcDbBlockBegin
  2
*Model_Space
 70
     0
 10
0.0
 20
0.0
 30
0.0
  3
*Model_Space
  1

  0
ENDBLK
  5
21
330
1F
100
AcDbEntity
  8
0
100
AcDbBlockEnd
  0
BLOCK
  5
1C
330
1B
100
AcDbEntity
 67
     1
  8
0
100
AcDbBlockBegin
  2
*Paper_Space
 70
     0
 10
0.0
 20
0.0
 30
0.0
  3
*Paper_Space
  1

  0
ENDBLK
  5
1D
330
1B
100
AcDbEntity
 67
     1
  8
0
100
AcDbBlockEnd
  0
BLOCK
  5
24
330
23
100
AcDbEntity
  8
0
100
AcDbBlockBegin
  2
*Paper_Space0
 70
     0
 10
0.0
 20
0.0
 30
0.0
  3
*Paper_Space0
  1

  0
ENDBLK
  5
25
330
23
100
AcDbEntity
  8
0
100
AcDbBlockEnd
  0
ENDSEC
  0
SECTION
  2
ENTITIES
  0
LINE
  5
1F3
330
1F
100
AcDbEntity
  8
0
  6
Continuous
 62
     7
370
    25
100
AcDbLine
 10
11.0978328001
 20
24.8927967158
 30
0.0
 11
11.0931536332
 21
23.9097461192
 31
0.0
  0
LINE
  5
1F4
330
1F
100
AcDbEntity
  8
0
  6
Continuous
 62
     7
370
    25
100
AcDbLine
 10
13.7178113688
 20
24.9031877771
 30
0.0
 11
13.7224905358
 21
23.9201371805
 31
0.0
  0
LINE
  5
1F5
330
1F
100
AcDbEntity
  8
0
  6
Continuous
 62
     7
370
    25
100
AcDbLine
 10
13.695396147
 20
-21.7085614173
 30
0.0
 11
13.695396147
 21
-23.697764976
 31
0.0
  0
LINE
  5
1F6
330
1F
100
AcDbEntity
  8
0
  6
Continuous
 62
     7
370
    25
100
AcDbLine
 10
13.695396147
 20
-23.697764976
 30
0.0
 11
19.8786051397
 21
-23.697764976
 31
0.0
  0
LINE
  5
1F7
330
1F
100
AcDbEntity
  8
0
  6
Continuous
 62
     7
370
    25
100
AcDbLine
 10
19.8786051397
 20
-21.6643325873
 30
0.0
 11
19.8786051397
 21
-23.697764976
 31
0.0
  0
LINE
  5
1F8
330
1F
100
AcDbEntity
  8
0
  6
Continuous
 62
     7
370
    25
100
AcDbLine
 10
19.8209819395
 20
24.9818439627
 30
0.0
 11
19.8163027726
 21
23.9987933661
 31
0.0
  0
LINE
  5
1F9
330
1F
100
AcDbEntity
  8
0
  6
Continuous
 62
     7
370
    25
100
AcDbLine
 10
22.4409605083
 20
-33.756513616
 30
0.0
 11
22.4409605083
 21
24.992235024
 31
0.0
  0
LINE
  5
1FA
330
1F
100
AcDbEntity
  8
0
  6
Continuous
 62
     7
370
    25
100
AcDbLine
 10
-22.5
 20
-33.756513616
 30
0.0
 11
22.4409605083
 21
-33.756513616
 31
0.0
  0
LINE
  5
1FB
330
1F
100
AcDbEntity
  8
0
  6
Continuous
 62
     7
370
    25
100
AcDbLine
 10
-22.5
 20
-33.756513616
 30
0.0
 11
-22.5
 21
24.933486384
 31
0.0
  0
LINE
  5
1FC
330
1F
100
AcDbEntity
  8
0
  6
Continuous
 62
     7
370
    25
100
AcDbLine
 10
-19.8800214312
 20
24.9230953227
 30
0.0
 11
-19.8753422643
 21
23.9400447262
 31
0.0
  0
LINE
  5
1FD
330
1F
100
AcDbEntity
  8
0
  6
Continuous
 62
     7
370
    25
100
AcDbLine
 10
-19.9376446314
 20
-21.7230812273
 30
0.0
 11
-19.9376446314
 21
-23.756513616
 31
0.0
  0
LINE
  5
1FE
330
1F
100
AcDbEntity
  8
0
  6
Continuous
 62
     7
370
    25
100
AcDbLine
 10
-19.9376446314
 20
-23.756513616
 30
0.0
 11
-13.5601110646
 21
-23.756513616
 31
0.0
  0
LINE
  5
1FF
330
1F
100
AcDbEntity
  8
0
  6
Continuous
 62
     7
370
    25
100
AcDbLine
 10
-13.5601110646
 20
-21.7673100572
 30
0.0
 11
-13.5601110646
 21
-23.756513616
 31
0.0
  0
LINE
  5
200
330
1F
100
AcDbEntity
  8
0
  6
Continuous
 62
     7
370
    25
100
AcDbLine
 10
-13.7034839569
 20
24.9553863639
 30
0.0
 11
-13.7081631238
 21
23.9723357674
 31
0.0
  0
LINE
  5
201
330
1F
100
AcDbEntity
  8
0
  6
Continuous
 62
     7
370
    25
100
AcDbLine
 10
-11.0835053881
 20
24.9657774253
 30
0.0
 11
-11.0788262212
 21
23.9827268287
 31
0.0
  0
LINE
  5
202
330
1F
100
AcDbEntity
  8
0
  6
Continuous
 62
     7
370
    25
100
AcDbLine
 10
-11.2268782804
 20
-21.7569189959
 30
0.0
 11
-11.2268782804
 21
-23.7461225546
 31
0.0
  0
LINE
  5
203
330
1F
100
AcDbEntity
  8
0
  6
Continuous
 62
     7
370
    25
100
AcDbLine
 10
-11.2268782804
 20
-23.7461225546
 30
0.0
 11
-5.3114249837
 21
-23.7461225546
 31
0.0
  0
LINE
  5
204
330
1F
100
AcDbEntity
  8
0
  6
Continuous
 62
     7
370
    25
100
AcDbLine
 10
-5.3114249837
 20
-21.7933554713
 30
0.0
 11
-5.3114249837
 21
-23.7461225546
 31
0.0
  0
LINE
  5
205
330
1F
100
AcDbEntity
  8
0
  6
Continuous
 62
     7
370
    25
100
AcDbLine
 10
-5.454797876
 20
24.9293409499
 30
0.0
 11
-5.4594770429
 21
23.9462903533
 31
0.0
  0
LINE
  5
206
330
1F
100
AcDbEntity
  8
0
  6
Continuous
 62
     7
370
    25
100
AcDbLine
 10
-2.8348193072
 20
24.9397320112
 30
0.0
 11
-2.8301401403
 21
23.9566814147
 31
0.0
  0
LINE
  5
207
330
1F
100
AcDbEntity
  8
0
  6
Continuous
 62
     7
370
    25
100
AcDbLine
 10
-2.9781921996
 20
-21.78296441
 30
0.0
 11
-2.9781921996
 21
-23.7721679687
 31
0.0
  0
LINE
  5
208
330
1F
100
AcDbEntity
  8
0
  6
Continuous
 62
     7
370
    25
100
AcDbLine
 10
-2.9781921996
 20
-23.7721679687
 30
0.0
 11
2.9272610972
 21
-23.7721679687
 31
0.0
  0
LINE
  5
209
330
1F
100
AcDbEntity
  8
0
  6
Continuous
 62
     7
370
    25
100
AcDbLine
 10
2.9272610972
 20
-21.78296441
 30
0.0
 11
2.9272610972
 21
-23.7721679687
 31
0.0
  0
LINE
  5
20A
330
1F
100
AcDbEntity
  8
0
  6
Continuous
 62
     7
370
    25
100
AcDbLine
 10
2.7838882049
 20
24.9397320112
 30
0.0
 11
2.779209038
 21
23.9566814147
 31
0.0
  0
LINE
  5
20B
330
1F
100
AcDbEntity
  8
0
  6
Continuous
 62
     7
370
    25
100
AcDbLine
 10
5.4038667737
 20
24.9501230725
 30
0.0
 11
5.4085459406
 21
23.967072476
 31
0.0
  0
LINE
  5
20C
330
1F
100
AcDbEntity
  8
0
  6
Continuous
 62
     7
370
    25
100
AcDbLine
 10
5.2604938813
 20
-21.7725733487
 30
0.0
 11
5.2604938813
 21
-23.7617769074
 31
0.0
  0
LINE
  5
20D
330
1F
100
AcDbEntity
  8
0
  6
Continuous
 62
     7
370
    25
100
AcDbLine
 10
5.2604938813
 20
-23.7617769074
 30
0.0
 11
11.1759471781
 21
-23.7617769074
 31
0.0
  0
LINE
  5
20E
330
1F
100
AcDbEntity
  8
0
  6
Continuous
 62
     7
370
    25
100
AcDbLine
 10
11.1759471781
 20
-21.7725733487
 30
0.0
 11
11.1759471781
 21
-23.7617769074
 31
0.0
  0
ARC
  5
20F
330
1F
100
AcDbEntity
  8
0
  6
Continuous
 62
     7
370
    25
100
AcDbCircle
 10
10.4660593944
 20
10.8692025575
 30
0.0
 40
0.900000000000017
100
AcDbArc
 50
310.268884994
 51
49.539453795
  0
ARC
  5
210
330
1F
100
AcDbEntity
  8
0
  6
Continuous
 62
     7
370
    25
100
AcDbCircle
 10
11.6186306607
 20
12.2205733183
 30
0.0
 40
0.8761259687305164
100
AcDbArc
 50
129.9151123566
 51
229.5394537099
  0
ARC
  5
211
330
1F
100
AcDbEntity
  8
0
  6
Continuous
 62
     7
370
    25
100
AcDbCircle
 10
10.4789759558
 20
13.5828547174
 30
0.0
 40
0.8999999999999961
100
AcDbArc
 50
309.9151124459
 51
49.2947627285
  0
ARC
  5
212
330
1F
100
AcDbEntity
  8
0
  6
Continuous
 62
     7
370
    25
100
AcDbCircle
 10
11.6528778165
 20
14.9473892247
 30
0.0
 40
0.8999999999999545
100
AcDbArc
 50
130.268884994
 51
229.2947627285
  0
ARC
  5
213
330
1F
100
AcDbEntity
  8
0
  6
Continuous
 62
     7
370
    25
100
AcDbCircle
 10
10.4894018985
 20
16.3208242571
 30
0.0
 40
0.9000000000000383
100
AcDbArc
 50
310.268884994
 51
49.539453795
  0
ARC
  5
214
330
1F
100
AcDbEntity
  8
0
  6
Continuous
 62
     7
370
    25
100
AcDbCircle
 10
11.6419731637
 20
17.6721950187
 30
0.0
 40
0.8761259687304928
100
AcDbArc
 50
129.9151124459
 51
229.539453795
  0
ARC
  5
215
330
1F
100
AcDbEntity
  8
0
  6
Continuous
 62
     7
370
    25
100
AcDbCircle
 10
10.5023184578
 20
19.034476417
 30
0.0
 40
0.9000000000000018
100
AcDbArc
 50
309.9151124459
 51
50.0848875541
  0
ARC
  5
216
330
1F
100
AcDbEntity
  8
0
  6
Continuous
 62
     7
370
    25
100
AcDbCircle
 10
11.6483446336
 20
20.3913758253
 30
0.0
 40
0.8761259687305023
100
AcDbArc
 50
129.9151124459
 51
229.539453795
  0
ARC
  5
217
330
1F
100
AcDbEntity
  8
0
  6
Continuous
 62
     7
370
    25
100
AcDbCircle
 10
10.5086899277
 20
21.7536572236
 30
0.0
 40
0.9000000000000068
100
AcDbArc
 50
309.9151124459
 51
50.0848875541
  0
ARC
  5
218
330
1F
100
AcDbEntity
  8
0
  6
Continuous
 62
     7
370
    25
100
AcDbCircle
 10
11.6547161035
 20
23.1105566319
 30
0.0
 40
0.8761259687304978
100
AcDbArc
 50
137.0997384652
 51
229.539453795
  0
ARC
  5
219
330
1F
100
AcDbEntity
  8
0
  6
Continuous
 62
     7
370
    25
100
AcDbCircle
 10
10.7931570315
 20
23.9111740561
 30
0.0
 40
0.3000000000000156
100
AcDbArc
 50
317.0997384652
 51
359.7272831205
  0
ARC
  5
21A
330
1F
100
AcDbEntity
  8
0
  6
Continuous
 62
     7
370
    25
100
AcDbCircle
 10
12.4078262084
 20
24.8969524529
 30
0.0
 40
1.30999999997766
100
AcDbArc
 50
0.272716879
 51
180.1817607599
  0
ARC
  5
21B
330
1F
100
AcDbEntity
  8
0
  6
Continuous
 62
     7
370
    25
100
AcDbCircle
 10
14.0224871374
 20
23.9215651174
 30
0.0
 40
0.3000000000000038
100
AcDbArc
 50
180.2727168795
 51
222.9002615348
  0
ARC
  5
21C
330
1F
100
AcDbEntity
  8
0
  6
Continuous
 62
     7
370
    25
100
AcDbCircle
 10
13.1609280655
 20
23.1209476932
 30
0.0
 40
0.8761259687305084
100
AcDbArc
 50
310.460546205
 51
42.9002615348
  0
ARC
  5
21D
330
1F
100
AcDbEntity
  8
0
  6
Continuous
 62
     7
370
    25
100
AcDbCircle
 10
14.3069542412
 20
21.7640482849
 30
0.0
 40
0.8999999999999997
100
AcDbArc
 50
129.9151124459
 51
230.0848875541
  0
ARC
  5
21E
330
1F
100
AcDbEntity
  8
0
  6
Continuous
 62
     7
370
    25
100
AcDbCircle
 10
13.1672995353
 20
20.4017668866
 30
0.0
 40
0.8761259687305062
100
AcDbArc
 50
310.460546205
 51
50.0848875541
  0
ARC
  5
21F
330
1F
100
AcDbEntity
  8
0
  6
Continuous
 62
     7
370
    25
100
AcDbCircle
 10
14.3133257111
 20
19.0448674783
 30
0.0
 40
0.9000000000000031
100
AcDbArc
 50
129.9151124459
 51
230.0848875541
  0
ARC
  5
220
330
1F
100
AcDbEntity
  8
0
  6
Continuous
 62
     7
370
    25
100
AcDbCircle
 10
13.1736710052
 20
17.68258608
 30
0.0
 40
0.8761259687305039
100
AcDbArc
 50
310.460546205
 51
50.0848875541
  0
ARC
  5
221
330
1F
100
AcDbEntity
  8
0
  6
Continuous
 62
     7
370
    25
100
AcDbCircle
 10
14.3262422705
 20
16.3312153184
 30
0.0
 40
0.900000000000031
100
AcDbArc
 50
130.460546205
 51
229.731115006
  0
ARC
  5
222
330
1F
100
AcDbEntity
  8
0
  6
Continuous
 62
     7
370
    25
100
AcDbCircle
 10
13.1627663524
 20
14.957780286
 30
0.0
 40
0.8999999999999552
100
AcDbArc
 50
310.7052372715
 51
49.731115006
  0
ARC
  5
223
330
1F
100
AcDbEntity
  8
0
  6
Continuous
 62
     7
370
    25
100
AcDbCircle
 10
14.3366682131
 20
13.5932457788
 30
0.0
 40
0.8999999999999981
100
AcDbArc
 50
130.7052372715
 51
230.0848875541
  0
ARC
  5
224
330
1F
100
AcDbEntity
  8
0
  6
Continuous
 62
     7
370
    25
100
AcDbCircle
 10
13.1970135082
 20
12.2309643796
 30
0.0
 40
0.8761259687305175
100
AcDbArc
 50
310.4605462901
 51
50.0848876434
  0
ARC
  5
225
330
1F
100
AcDbEntity
  8
0
  6
Continuous
 62
     7
370
    25
100
AcDbCircle
 10
14.3495847745
 20
10.8795936188
 30
0.0
 40
0.9000000000000172
100
AcDbArc
 50
130.460546205
 51
229.731115006
  0
ARC
  5
226
330
1F
100
AcDbEntity
  8
0
  6
Continuous
 62
     7
370
    25
100
AcDbCircle
 10
13.1861088564
 20
9.5061585865
 30
0.0
 40
0.8999999999999642
100
AcDbArc
 50
315.1414789726
 51
49.731115006
  0
ARC
  5
227
330
1F
100
AcDbEntity
  8
0
  6
Continuous
 62
     7
370
    25
100
AcDbCircle
 10
14.4620400516
 20
8.23651313
 30
0.0
 40
0.9000000000000007
100
AcDbArc
 50
135.1414789726
 51
230.0848875541
  0
ARC
  5
228
330
1F
100
AcDbEntity
  8
0
  6
Continuous
 62
     7
370
    25
100
AcDbCircle
 10
13.3223853458
 20
6.8742317317
 30
0.0
 40
0.8761259687305021
100
AcDbArc
 50
310.460546205
 51
50.0848875541
  0
ARC
  5
229
330
1F
100
AcDbEntity
  8
0
  6
Continuous
 62
     7
370
    25
100
AcDbCircle
 10
14.4684115215
 20
5.5173323234
 30
0.0
 40
0.9000000000000042
100
AcDbArc
 50
129.9151124459
 51
230.0848875541
  0
ARC
  5
22A
330
1F
100
AcDbEntity
  8
0
  6
Continuous
 62
     7
370
    25
100
AcDbCircle
 10
13.3287568156
 20
4.1550509251
 30
0.0
 40
0.8761259687305003
100
AcDbArc
 50
310.460546205
 51
50.0848875541
  0
ARC
  5
22B
330
1F
100
AcDbEntity
  8
0
  6
Continuous
 62
     7
370
    25
100
AcDbCircle
 10
14.4813280809
 20
2.8036801635
 30
0.0
 40
0.9000000000000278
100
AcDbArc
 50
130.460546205
 51
229.731115006
  0
ARC
  5
22C
330
1F
100
AcDbEntity
  8
0
  6
Continuous
 62
     7
370
    25
100
AcDbCircle
 10
13.3178521628
 20
1.4302451311
 30
0.0
 40
0.8999999999999524
100
AcDbArc
 50
310.7052372715
 51
49.731115006
  0
ARC
  5
22D
330
1F
100
AcDbEntity
  8
0
  6
Continuous
 62
     7
370
    25
100
AcDbCircle
 10
14.4917540235
 20
0.0657106239
 30
0.0
 40
0.9000000000000008
100
AcDbArc
 50
130.7052372715
 51
230.0848875541
  0
ARC
  5
22E
330
1F
100
AcDbEntity
  8
0
  6
Continuous
 62
     7
370
    25
100
AcDbCircle
 10
13.3520993176
 20
-1.2965707744
 30
0.0
 40
0.8761259687305093
100
AcDbArc
 50
310.460546205
 51
50.0848875541
  0
ARC
  5
22F
330
1F
100
AcDbEntity
  8
0
  6
Continuous
 62
     7
370
    25
100
AcDbCircle
 10
14.5046705829
 20
-2.647941536
 30
0.0
 40
0.9000000000000131
100
AcDbArc
 50
130.4605462049
 51
229.7311150059
  0
ARC
  5
230
330
1F
100
AcDbEntity
  8
0
  6
Continuous
 62
     7
370
    25
100
AcDbCircle
 10
13.3411946648
 20
-4.0213765684
 30
0.0
 40
0.9000000000012883
100
AcDbArc
 50
312.5100740147
 51
49.731115006
  0
ARC
  5
231
330
1F
100
AcDbEntity
  8
0
  6
Continuous
 62
     7
370
    25
100
AcDbCircle
 10
14.5268292732
 20
-5.3751155959
 30
0.0
 40
0.9000000000000025
100
AcDbArc
 50
129.91511245
 51
230.0848875541
  0
ARC
  5
232
330
1F
100
AcDbEntity
  8
0
  6
Continuous
 62
     7
370
    25
100
AcDbCircle
 10
13.3871745673
 20
-6.7373969942
 30
0.0
 40
0.8761259687305032
100
AcDbArc
 50
310.460546205
 51
50.0848875541
  0
ARC
  5
233
330
1F
100
AcDbEntity
  8
0
  6
Continuous
 62
     7
370
    25
100
AcDbCircle
 10
14.533200743
 20
-8.0942964026
 30
0.0
 40
0.9000000000000064
100
AcDbArc
 50
129.9151124459
 51
230.0848875541
  0
ARC
  5
234
330
1F
100
AcDbEntity
  8
0
  6
Continuous
 62
     7
370
    25
100
AcDbCircle
 10
13.3935460372
 20
-9.4565778009
 30
0.0
 40
0.8761259687305021
100
AcDbArc
 50
310.460546205
 51
50.0848875541
  0
ARC
  5
235
330
1F
100
AcDbEntity
  8
0
  6
Continuous
 62
     7
370
    25
100
AcDbCircle
 10
14.5461173024
 20
-10.8079485625
 30
0.0
 40
0.9000000000000302
100
AcDbArc
 50
130.460546205
 51
229.731115006
  0
ARC
  5
236
330
1F
100
AcDbEntity
  8
0
  6
Continuous
 62
     7
370
    25
100
AcDbCircle
 10
13.3826413833
 20
-12.1813835939
 30
0.0
 40
0.8999999999999508
100
AcDbArc
 50
310.7052371801
 51
49.7311149188
  0
ARC
  5
237
330
1F
100
AcDbEntity
  8
0
  6
Continuous
 62
     7
370
    25
100
AcDbCircle
 10
14.5565432429
 20
-13.5459181021
 30
0.0
 40
0.9000000000000086
100
AcDbArc
 50
130.7052372715
 51
230.0848875541
  0
ARC
  5
238
330
1F
100
AcDbEntity
  8
0
  6
Continuous
 62
     7
370
    25
100
AcDbCircle
 10
13.416888537
 20
-14.9081995004
 30
0.0
 40
0.8761259687305011
100
AcDbArc
 50
310.460546205
 51
50.0848875541
  0
ARC
  5
239
330
1F
100
AcDbEntity
  8
0
  6
Continuous
 62
     7
370
    25
100
AcDbCircle
 10
14.5694598023
 20
-16.259570262
 30
0.0
 40
0.9000000000000243
100
AcDbArc
 50
130.460546205
 51
229.731115006
  0
ARC
  5
23A
330
1F
100
AcDbEntity
  8
0
  6
Continuous
 62
     7
370
    25
100
AcDbCircle
 10
13.4059866565
 20
-17.6330020218
 30
0.0
 40
0.8999957110097325
100
AcDbArc
 50
310.09199872
 51
49.731115006
  0
ARC
  5
23B
330
1F
100
AcDbEntity
  8
0
  6
Continuous
 62
     7
370
    25
100
AcDbCircle
 10
14.5652141401
 20
-19.0100191607
 30
0.0
 40
0.90000000000001
100
AcDbArc
 50
130.09199872
 51
230.0848875541
  0
ARC
  5
23C
330
1F
100
AcDbEntity
  8
0
  6
Continuous
 62
     7
370
    25
100
AcDbCircle
 10
13.4255594343
 20
-20.372300559
 30
0.0
 40
0.8761259687304973
100
AcDbArc
 50
310.460546205
 51
50.0848875541
  0
ARC
  5
23D
330
1F
100
AcDbEntity
  8
0
  6
Continuous
 62
     7
370
    25
100
AcDbCircle
 10
14.595396147
 20
-21.7085614173
 30
0.0
 40
0.9000000000000092
100
AcDbArc
 50
131.9212152539
 51
180.0
  0
ARC
  5
23E
330
1F
100
AcDbEntity
  8
0
  6
Continuous
 62
     7
370
    25
100
AcDbCircle
 10
18.9786051397
 20
-21.6643325873
 30
0.0
 40
0.8999999999999879
100
AcDbArc
 50
0.0
 51
48.0787847461
  0
ARC
  5
23F
330
1F
100
AcDbEntity
  8
0
  6
Continuous
 62
     7
370
    25
100
AcDbCircle
 10
20.1484418525
 20
-20.3280717291
 30
0.0
 40
0.8761259687305066
100
AcDbArc
 50
129.9151124459
 51
229.539453795
  0
ARC
  5
240
330
1F
100
AcDbEntity
  8
0
  6
Continuous
 62
     7
370
    25
100
AcDbCircle
 10
19.0087871466
 20
-18.9657903308
 30
0.0
 40
0.899999999999997
100
AcDbArc
 50
309.9151124459
 51
49.90800128
  0
ARC
  5
241
330
1F
100
AcDbEntity
  8
0
  6
Continuous
 62
     7
370
    25
100
AcDbCircle
 10
20.1680146302
 20
-17.5887731918
 30
0.0
 40
0.8999957110097303
100
AcDbArc
 50
130.268884994
 51
229.90800128
  0
ARC
  5
242
330
1F
100
AcDbEntity
  8
0
  6
Continuous
 62
     7
370
    25
100
AcDbCircle
 10
19.0045414844
 20
-16.2153414321
 30
0.0
 40
0.9000000000000267
100
AcDbArc
 50
310.268884994
 51
49.539453795
  0
ARC
  5
243
330
1F
100
AcDbEntity
  8
0
  6
Continuous
 62
     7
370
    25
100
AcDbCircle
 10
20.1571127497
 20
-14.8639706705
 30
0.0
 40
0.8761259687305027
100
AcDbArc
 50
129.9151124459
 51
229.539453795
  0
ARC
  5
244
330
1F
100
AcDbEntity
  8
0
  6
Continuous
 62
     7
370
    25
100
AcDbCircle
 10
19.0174580438
 20
-13.5016892722
 30
0.0
 40
0.9000000000000007
100
AcDbArc
 50
309.9151124459
 51
49.2947627285
  0
ARC
  5
245
330
1F
100
AcDbEntity
  8
0
  6
Continuous
 62
     7
370
    25
100
AcDbCircle
 10
20.1913599034
 20
-12.137154764
 30
0.0
 40
0.8999999999999597
100
AcDbArc
 50
130.2688850812
 51
229.2947628199
  0
ARC
  5
246
330
1F
100
AcDbEntity
  8
0
  6
Continuous
 62
     7
370
    25
100
AcDbCircle
 10
19.0278839843
 20
-10.7637197325
 30
0.0
 40
0.9000000000000264
100
AcDbArc
 50
310.268884994
 51
49.539453795
  0
ARC
  5
247
330
1F
100
AcDbEntity
  8
0
  6
Continuous
 62
     7
370
    25
100
AcDbCircle
 10
20.1804552496
 20
-9.4123489709
 30
0.0
 40
0.8761259687305002
100
AcDbArc
 50
129.9151124459
 51
229.539453795
  0
ARC
  5
248
330
1F
100
AcDbEntity
  8
0
  6
Continuous
 62
     7
370
    25
100
AcDbCircle
 10
19.0408005437
 20
-8.0500675726
 30
0.0
 40
0.9000000000000089
100
AcDbArc
 50
309.9151124459
 51
50.0848875541
  0
ARC
  5
249
330
1F
100
AcDbEntity
  8
0
  6
Continuous
 62
     7
370
    25
100
AcDbCircle
 10
20.1868267194
 20
-6.6931681643
 30
0.0
 40
0.8761259687304993
100
AcDbArc
 50
129.9151124459
 51
229.539453795
  0
ARC
  5
24A
330
1F
100
AcDbEntity
  8
0
  6
Continuous
 62
     7
370
    25
100
AcDbCircle
 10
19.0471720135
 20
-5.330886766
 30
0.0
 40
0.8999999999999931
100
AcDbArc
 50
309.9151124459
 51
50.08488755
  0
ARC
  5
24B
330
1F
100
AcDbEntity
  8
0
  6
Continuous
 62
     7
370
    25
100
AcDbCircle
 10
20.2328066219
 20
-3.9771477384
 30
0.0
 40
0.9000000000012908
100
AcDbArc
 50
130.268884994
 51
227.4899259853
  0
ARC
  5
24C
330
1F
100
AcDbEntity
  8
0
  6
Continuous
 62
     7
370
    25
100
AcDbCircle
 10
19.0693307038
 20
-2.6037127061
 30
0.0
 40
0.9000000000000051
100
AcDbArc
 50
310.2688849941
 51
49.5394537951
  0
ARC
  5
24D
330
1F
100
AcDbEntity
  8
0
  6
Continuous
 62
     7
370
    25
100
AcDbCircle
 10
20.2219019691
 20
-1.2523419445
 30
0.0
 40
0.8761259687305073
100
AcDbArc
 50
129.9151124459
 51
229.539453795
  0
ARC
  5
24E
330
1F
100
AcDbEntity
  8
0
  6
Continuous
 62
     7
370
    25
100
AcDbCircle
 10
19.0822472632
 20
0.1099394538
 30
0.0
 40
0.8999999999999974
100
AcDbArc
 50
309.9151124459
 51
49.2947627285
  0
ARC
  5
24F
330
1F
100
AcDbEntity
  8
0
  6
Continuous
 62
     7
370
    25
100
AcDbCircle
 10
20.2561491239
 20
1.4744739611
 30
0.0
 40
0.89999999999995
100
AcDbArc
 50
130.268884994
 51
229.2947627285
  0
ARC
  5
250
330
1F
100
AcDbEntity
  8
0
  6
Continuous
 62
     7
370
    25
100
AcDbCircle
 10
19.0926732058
 20
2.8479089935
 30
0.0
 40
0.9000000000000364
100
AcDbArc
 50
310.268884994
 51
49.539453795
  0
ARC
  5
251
330
1F
100
AcDbEntity
  8
0
  6
Continuous
 62
     7
370
    25
100
AcDbCircle
 10
20.2452444711
 20
4.1992797551
 30
0.0
 40
0.8761259687304991
100
AcDbArc
 50
129.9151124459
 51
229.539453795
  0
ARC
  5
252
330
1F
100
AcDbEntity
  8
0
  6
Continuous
 62
     7
370
    25
100
AcDbCircle
 10
19.1055897652
 20
5.5615611534
 30
0.0
 40
0.9000000000000089
100
AcDbArc
 50
309.9151124459
 51
50.0848875541
  0
ARC
  5
253
330
1F
100
AcDbEntity
  8
0
  6
Continuous
 62
     7
370
    25
100
AcDbCircle
 10
20.251615941
 20
6.9184605617
 30
0.0
 40
0.8761259687305046
100
AcDbArc
 50
129.9151124459
 51
229.539453795
  0
ARC
  5
254
330
1F
100
AcDbEntity
  8
0
  6
Continuous
 62
     7
370
    25
100
AcDbCircle
 10
19.1119612351
 20
8.28074196
 30
0.0
 40
0.8999999999999979
100
AcDbArc
 50
309.9151124459
 51
46.4260140729
  0
ARC
  5
255
330
1F
100
AcDbEntity
  8
0
  6
Continuous
 62
     7
370
    25
100
AcDbCircle
 10
20.3526844519
 20
9.5848147721
 30
0.0
 40
0.8999999999999617
100
AcDbArc
 50
130.268884994
 51
226.4260140729
  0
ARC
  5
256
330
1F
100
AcDbEntity
  8
0
  6
Continuous
 62
     7
370
    25
100
AcDbCircle
 10
19.1892085339
 20
10.9582498044
 30
0.0
 40
0.9000000000000186
100
AcDbArc
 50
310.268884994
 51
49.539453795
  0
ARC
  5
257
330
1F
100
AcDbEntity
  8
0
  6
Continuous
 62
     7
370
    25
100
AcDbCircle
 10
20.3417798001
 20
12.3096205652
 30
0.0
 40
0.8761259687305057
100
AcDbArc
 50
129.9151123566
 51
229.5394537099
  0
ARC
  5
258
330
1F
100
AcDbEntity
  8
0
  6
Continuous
 62
     7
370
    25
100
AcDbCircle
 10
19.2021250953
 20
13.6719019643
 30
0.0
 40
0.899999999999992
100
AcDbArc
 50
309.9151124459
 51
49.2947627285
  0
ARC
  5
259
330
1F
100
AcDbEntity
  8
0
  6
Continuous
 62
     7
370
    25
100
AcDbCircle
 10
20.376026956
 20
15.0364364716
 30
0.0
 40
0.8999999999999542
100
AcDbArc
 50
130.268884994
 51
229.2947627285
  0
ARC
  5
25A
330
1F
100
AcDbEntity
  8
0
  6
Continuous
 62
     7
370
    25
100
AcDbCircle
 10
19.2125510379
 20
16.409871504
 30
0.0
 40
0.9000000000000336
100
AcDbArc
 50
310.268884994
 51
49.539453795
  0
ARC
  5
25B
330
1F
100
AcDbEntity
  8
0
  6
Continuous
 62
     7
370
    25
100
AcDbCircle
 10
20.3651223032
 20
17.7612422656
 30
0.0
 40
0.876125968730502
100
AcDbArc
 50
129.9151124459
 51
229.539453795
  0
ARC
  5
25C
330
1F
100
AcDbEntity
  8
0
  6
Continuous
 62
     7
370
    25
100
AcDbCircle
 10
19.2254675973
 20
19.1235236639
 30
0.0
 40
0.9000000000000002
100
AcDbArc
 50
309.9151124459
 51
50.0848875541
  0
ARC
  5
25D
330
1F
100
AcDbEntity
  8
0
  6
Continuous
 62
     7
370
    25
100
AcDbCircle
 10
20.371493773
 20
20.4804230722
 30
0.0
 40
0.8761259687305057
100
AcDbArc
 50
129.9151124459
 51
229.539453795
  0
ARC
  5
25E
330
1F
100
AcDbEntity
  8
0
  6
Continuous
 62
     7
370
    25
100
AcDbCircle
 10
19.2318390671
 20
21.8427044705
 30
0.0
 40
0.8999999999999975
100
AcDbArc
 50
309.9151124459
 51
50.0848875541
  0
ARC
  5
25F
330
1F
100
AcDbEntity
  8
0
  6
Continuous
 62
     7
370
    25
100
AcDbCircle
 10
20.3778652429
 20
23.1996038788
 30
0.0
 40
0.8761259687304954
100
AcDbArc
 50
137.0997384652
 51
229.539453795
  0
ARC
  5
260
330
1F
100
AcDbEntity
  8
0
  6
Continuous
 62
     7
370
    25
100
AcDbCircle
 10
19.516306171
 20
24.000221303
 30
0.0
 40
0.3000000000000589
100
AcDbArc
 50
317.0997384652
 51
359.7272831205
  0
ARC
  5
261
330
1F
100
AcDbEntity
  8
0
  6
Continuous
 62
     7
370
    25
100
AcDbCircle
 10
21.1309753478
 20
24.9859996998
 30
0.0
 40
1.309999999977661
100
AcDbArc
 50
0.272716879
 51
180.1817607599
  0
ARC
  5
262
330
1F
100
AcDbEntity
  8
0
  6
Continuous
 62
     7
370
    25
100
AcDbCircle
 10
-21.1900148395
 20
24.9272510598
 30
0.0
 40
1.309999999977655
100
AcDbArc
 50
359.8182392401
 51
179.727283121
  0
ARC
  5
263
330
1F
100
AcDbEntity
  8
0
  6
Continuous
 62
     7
370
    25
100
AcDbCircle
 10
-19.5753456627
 20
23.941472663
 30
0.0
 40
0.3000000000000121
100
AcDbArc
 50
180.2727168795
 51
222.9002615348
  0
ARC
  5
264
330
1F
100
AcDbEntity
  8
0
  6
Continuous
 62
     7
370
    25
100
AcDbCircle
 10
-20.4369047346
 20
23.1408552389
 30
0.0
 40
0.8761259687304987
100
AcDbArc
 50
310.460546205
 51
42.9002615348
  0
ARC
  5
265
330
1F
100
AcDbEntity
  8
0
  6
Continuous
 62
     7
370
    25
100
AcDbCircle
 10
-19.2908785589
 20
21.7839558305
 30
0.0
 40
0.9000000000000047
100
AcDbArc
 50
129.9151124459
 51
230.0848875541
  0
ARC
  5
266
330
1F
100
AcDbEntity
  8
0
  6
Continuous
 62
     7
370
    25
100
AcDbCircle
 10
-20.4305332647
 20
20.4216744322
 30
0.0
 40
0.8761259687305023
100
AcDbArc
 50
310.460546205
 51
50.0848875541
  0
ARC
  5
267
330
1F
100
AcDbEntity
  8
0
  6
Continuous
 62
     7
370
    25
100
AcDbCircle
 10
-19.284507089
 20
19.0647750239
 30
0.0
 40
0.8999999999999957
100
AcDbArc
 50
129.9151124459
 51
230.0848875541
  0
ARC
  5
268
330
1F
100
AcDbEntity
  8
0
  6
Continuous
 62
     7
370
    25
100
AcDbCircle
 10
-20.4241617949
 20
17.7024936256
 30
0.0
 40
0.8761259687304976
100
AcDbArc
 50
310.460546205
 51
50.0848875541
  0
ARC
  5
269
330
1F
100
AcDbEntity
  8
0
  6
Continuous
 62
     7
370
    25
100
AcDbCircle
 10
-19.2715905296
 20
16.351122864
 30
0.0
 40
0.900000000000031
100
AcDbArc
 50
130.460546205
 51
229.731115006
  0
ARC
  5
26A
330
1F
100
AcDbEntity
  8
0
  6
Continuous
 62
     7
370
    25
100
AcDbCircle
 10
-20.4350664477
 20
14.9776878316
 30
0.0
 40
0.8999999999999536
100
AcDbArc
 50
310.7052372715
 51
49.731115006
  0
ARC
  5
26B
330
1F
100
AcDbEntity
  8
0
  6
Continuous
 62
     7
370
    25
100
AcDbCircle
 10
-19.261164587
 20
13.6131533244
 30
0.0
 40
0.8999999999999967
100
AcDbArc
 50
130.7052372715
 51
230.0848875541
  0
ARC
  5
26C
330
1F
100
AcDbEntity
  8
0
  6
Continuous
 62
     7
370
    25
100
AcDbCircle
 10
-20.4008192918
 20
12.2508719252
 30
0.0
 40
0.8761259687305198
100
AcDbArc
 50
310.4605462901
 51
50.0848876434
  0
ARC
  5
26D
330
1F
100
AcDbEntity
  8
0
  6
Continuous
 62
     7
370
    25
100
AcDbCircle
 10
-19.2482480256
 20
10.8995011645
 30
0.0
 40
0.9000000000000226
100
AcDbArc
 50
130.460546205
 51
229.731115006
  0
ARC
  5
26E
330
1F
100
AcDbEntity
  8
0
  6
Continuous
 62
     7
370
    25
100
AcDbCircle
 10
-20.4117239436
 20
9.5260661321
 30
0.0
 40
0.8999999999999585
100
AcDbArc
 50
313.5739859271
 51
49.731115006
  0
ARC
  5
26F
330
1F
100
AcDbEntity
  8
0
  6
Continuous
 62
     7
370
    25
100
AcDbCircle
 10
-19.1710007268
 20
8.22199332
 30
0.0
 40
0.8999999999999981
100
AcDbArc
 50
133.5739859271
 51
230.0848875541
  0
ARC
  5
270
330
1F
100
AcDbEntity
  8
0
  6
Continuous
 62
     7
370
    25
100
AcDbCircle
 10
-20.3106554327
 20
6.8597119217
 30
0.0
 40
0.8761259687304996
100
AcDbArc
 50
310.460546205
 51
50.0848875541
  0
ARC
  5
271
330
1F
100
AcDbEntity
  8
0
  6
Continuous
 62
     7
370
    25
100
AcDbCircle
 10
-19.1646292569
 20
5.5028125134
 30
0.0
 40
0.9000000000000042
100
AcDbArc
 50
129.9151124459
 51
230.0848875541
  0
ARC
  5
272
330
1F
100
AcDbEntity
  8
0
  6
Continuous
 62
     7
370
    25
100
AcDbCircle
 10
-20.3042839628
 20
4.1405311151
 30
0.0
 40
0.8761259687305026
100
AcDbArc
 50
310.460546205
 51
50.0848875541
  0
ARC
  5
273
330
1F
100
AcDbEntity
  8
0
  6
Continuous
 62
     7
370
    25
100
AcDbCircle
 10
-19.1517126975
 20
2.7891603535
 30
0.0
 40
0.9000000000000284
100
AcDbArc
 50
130.460546205
 51
229.731115006
  0
ARC
  5
274
330
1F
100
AcDbEntity
  8
0
  6
Continuous
 62
     7
370
    25
100
AcDbCircle
 10
-20.3151886156
 20
1.4157253211
 30
0.0
 40
0.8999999999999475
100
AcDbArc
 50
310.7052372715
 51
49.731115006
  0
ARC
  5
275
330
1F
100
AcDbEntity
  8
0
  6
Continuous
 62
     7
370
    25
100
AcDbCircle
 10
-19.1412867549
 20
0.0511908139
 30
0.0
 40
0.9000000000000046
100
AcDbArc
 50
130.7052372715
 51
230.0848875541
  0
ARC
  5
276
330
1F
100
AcDbEntity
  8
0
  6
Continuous
 62
     7
370
    25
100
AcDbCircle
 10
-20.2809414608
 20
-1.3110905844
 30
0.0
 40
0.8761259687305119
100
AcDbArc
 50
310.460546205
 51
50.0848875541
  0
ARC
  5
277
330
1F
100
AcDbEntity
  8
0
  6
Continuous
 62
     7
370
    25
100
AcDbCircle
 10
-19.1283701955
 20
-2.662461346
 30
0.0
 40
0.9000000000000089
100
AcDbArc
 50
130.4605462049
 51
229.7311150059
  0
ARC
  5
278
330
1F
100
AcDbEntity
  8
0
  6
Continuous
 62
     7
370
    25
100
AcDbCircle
 10
-20.2918461136
 20
-4.0358963784
 30
0.0
 40
0.9000000000012893
100
AcDbArc
 50
312.5100740147
 51
49.731115006
  0
ARC
  5
279
330
1F
100
AcDbEntity
  8
0
  6
Continuous
 62
     7
370
    25
100
AcDbCircle
 10
-19.1062115053
 20
-5.3896354059
 30
0.0
 40
0.8999999999999948
100
AcDbArc
 50
129.91511245
 51
230.0848875541
  0
ARC
  5
27A
330
1F
100
AcDbEntity
  8
0
  6
Continuous
 62
     7
370
    25
100
AcDbCircle
 10
-20.2458662111
 20
-6.7519168042
 30
0.0
 40
0.8761259687305026
100
AcDbArc
 50
310.460546205
 51
50.0848875541
  0
ARC
  5
27B
330
1F
100
AcDbEntity
  8
0
  6
Continuous
 62
     7
370
    25
100
AcDbCircle
 10
-19.0998400354
 20
-8.1088162125
 30
0.0
 40
0.9000000000000039
100
AcDbArc
 50
129.9151124459
 51
230.0848875541
  0
ARC
  5
27C
330
1F
100
AcDbEntity
  8
0
  6
Continuous
 62
     7
370
    25
100
AcDbCircle
 10
-20.2394947413
 20
-9.4710976108
 30
0.0
 40
0.8761259687304986
100
AcDbArc
 50
310.460546205
 51
50.0848875541
  0
ARC
  5
27D
330
1F
100
AcDbEntity
  8
0
  6
Continuous
 62
     7
370
    25
100
AcDbCircle
 10
-19.086923476
 20
-10.8224683724
 30
0.0
 40
0.9000000000000237
100
AcDbArc
 50
130.460546205
 51
229.731115006
  0
ARC
  5
27E
330
1F
100
AcDbEntity
  8
0
  6
Continuous
 62
     7
370
    25
100
AcDbCircle
 10
-20.2503993951
 20
-12.1959034039
 30
0.0
 40
0.8999999999999614
100
AcDbArc
 50
310.7052371801
 51
49.7311149188
  0
ARC
  5
27F
330
1F
100
AcDbEntity
  8
0
  6
Continuous
 62
     7
370
    25
100
AcDbCircle
 10
-19.0764975355
 20
-13.5604379121
 30
0.0
 40
0.9000000000000061
100
AcDbArc
 50
130.7052372715
 51
230.0848875541
  0
ARC
  5
280
330
1F
100
AcDbEntity
  8
0
  6
Continuous
 62
     7
370
    25
100
AcDbCircle
 10
-20.2161522414
 20
-14.9227193104
 30
0.0
 40
0.8761259687305021
100
AcDbArc
 50
310.460546205
 51
50.0848875541
  0
ARC
  5
281
330
1F
100
AcDbEntity
  8
0
  6
Continuous
 62
     7
370
    25
100
AcDbCircle
 10
-19.0635809761
 20
-16.274090072
 30
0.0
 40
0.9000000000000244
100
AcDbArc
 50
130.460546205
 51
229.731115006
  0
ARC
  5
282
330
1F
100
AcDbEntity
  8
0
  6
Continuous
 62
     7
370
    25
100
AcDbCircle
 10
-20.2270541219
 20
-17.6475218318
 30
0.0
 40
0.8999957110097335
100
AcDbArc
 50
310.09199872
 51
49.731115006
  0
ARC
  5
283
330
1F
100
AcDbEntity
  8
0
  6
Continuous
 62
     7
370
    25
100
AcDbCircle
 10
-19.0678266383
 20
-19.0245389707
 30
0.0
 40
0.8999999999999997
100
AcDbArc
 50
130.09199872
 51
230.0848875541
  0
ARC
  5
284
330
1F
100
AcDbEntity
  8
0
  6
Continuous
 62
     7
370
    25
100
AcDbCircle
 10
-20.2074813442
 20
-20.386820369
 30
0.0
 40
0.8761259687305
100
AcDbArc
 50
310.460546205
 51
50.0848875541
  0
ARC
  5
285
330
1F
100
AcDbEntity
  8
0
  6
Continuous
 62
     7
370
    25
100
AcDbCircle
 10
-19.0376446314
 20
-21.7230812273
 30
0.0
 40
0.900000000000024
100
AcDbArc
 50
131.9212152539
 51
180.0
  0
ARC
  5
286
330
1F
100
AcDbEntity
  8
0
  6
Continuous
 62
     7
370
    25
100
AcDbCircle
 10
-14.4601110646
 20
-21.7673100572
 30
0.0
 40
0.900000000000027
100
AcDbArc
 50
0.0
 51
48.0787847461
  0
ARC
  5
287
330
1F
100
AcDbEntity
  8
0
  6
Continuous
 62
     7
370
    25
100
AcDbCircle
 10
-13.2902743518
 20
-20.431049199
 30
0.0
 40
0.8761259687305051
100
AcDbArc
 50
129.9151124459
 51
229.539453795
  0
ARC
  5
288
330
1F
100
AcDbEntity
  8
0
  6
Continuous
 62
     7
370
    25
100
AcDbCircle
 10
-14.4299290577
 20
-19.0687678007
 30
0.0
 40
0.8999999999999977
100
AcDbArc
 50
309.9151124459
 51
49.90800128
  0
ARC
  5
289
330
1F
100
AcDbEntity
  8
0
  6
Continuous
 62
     7
370
    25
100
AcDbCircle
 10
-13.2707015741
 20
-17.6917506618
 30
0.0
 40
0.8999957110097325
100
AcDbArc
 50
130.268884994
 51
229.90800128
  0
ARC
  5
28A
330
1F
100
AcDbEntity
  8
0
  6
Continuous
 62
     7
370
    25
100
AcDbCircle
 10
-14.4341747199
 20
-16.318318902
 30
0.0
 40
0.9000000000000251
100
AcDbArc
 50
310.268884994
 51
49.539453795
  0
ARC
  5
28B
330
1F
100
AcDbEntity
  8
0
  6
Continuous
 62
     7
370
    25
100
AcDbCircle
 10
-13.2816034546
 20
-14.9669481404
 30
0.0
 40
0.8761259687305031
100
AcDbArc
 50
129.9151124459
 51
229.539453795
  0
ARC
  5
28C
330
1F
100
AcDbEntity
  8
0
  6
Continuous
 62
     7
370
    25
100
AcDbCircle
 10
-14.4212581605
 20
-13.6046667421
 30
0.0
 40
0.9000000000000039
100
AcDbArc
 50
309.9151124459
 51
49.2947627285
  0
ARC
  5
28D
330
1F
100
AcDbEntity
  8
0
  6
Continuous
 62
     7
370
    25
100
AcDbCircle
 10
-13.2473563009
 20
-12.2401322339
 30
0.0
 40
0.899999999999956
100
AcDbArc
 50
130.2688850812
 51
229.2947628199
  0
ARC
  5
28E
330
1F
100
AcDbEntity
  8
0
  6
Continuous
 62
     7
370
    25
100
AcDbCircle
 10
-14.41083222
 20
-10.8666972024
 30
0.0
 40
0.9000000000000307
100
AcDbArc
 50
310.268884994
 51
49.539453795
  0
ARC
  5
28F
330
1F
100
AcDbEntity
  8
0
  6
Continuous
 62
     7
370
    25
100
AcDbCircle
 10
-13.2582609547
 20
-9.5153264408
 30
0.0
 40
0.8761259687304973
100
AcDbArc
 50
129.9151124459
 51
229.539453795
  0
ARC
  5
290
330
1F
100
AcDbEntity
  8
0
  6
Continuous
 62
     7
370
    25
100
AcDbCircle
 10
-14.3979156606
 20
-8.1530450425
 30
0.0
 40
0.9000000000000064
100
AcDbArc
 50
309.9151124459
 51
50.0848875541
  0
ARC
  5
291
330
1F
100
AcDbEntity
  8
0
  6
Continuous
 62
     7
370
    25
100
AcDbCircle
 10
-13.2518894849
 20
-6.7961456342
 30
0.0
 40
0.8761259687304997
100
AcDbArc
 50
129.9151124459
 51
229.539453795
  0
ARC
  5
292
330
1F
100
AcDbEntity
  8
0
  6
Continuous
 62
     7
370
    25
100
AcDbCircle
 10
-14.3915441907
 20
-5.4338642359
 30
0.0
 40
0.9000000000000014
100
AcDbArc
 50
309.9151124459
 51
50.08488755
  0
ARC
  5
293
330
1F
100
AcDbEntity
  8
0
  6
Continuous
 62
     7
370
    25
100
AcDbCircle
 10
-13.2059095824
 20
-4.0801252084
 30
0.0
 40
0.9000000000012898
100
AcDbArc
 50
130.268884994
 51
227.4899259853
  0
ARC
  5
294
330
1F
100
AcDbEntity
  8
0
  6
Continuous
 62
     7
370
    25
100
AcDbCircle
 10
-14.3693855005
 20
-2.706690176
 30
0.0
 40
0.9000000000000112
100
AcDbArc
 50
310.2688849941
 51
49.5394537951
  0
ARC
  5
295
330
1F
100
AcDbEntity
  8
0
  6
Continuous
 62
     7
370
    25
100
AcDbCircle
 10
-13.2168142352
 20
-1.3553194144
 30
0.0
 40
0.8761259687305069
100
AcDbArc
 50
129.9151124459
 51
229.539453795
  0
ARC
  5
296
330
1F
100
AcDbEntity
  8
0
  6
Continuous
 62
     7
370
    25
100
AcDbCircle
 10
-14.3564689411
 20
0.0069619839
 30
0.0
 40
0.9000000000000008
100
AcDbArc
 50
309.9151124459
 51
49.2947627285
  0
ARC
  5
297
330
1F
100
AcDbEntity
  8
0
  6
Continuous
 62
     7
370
    25
100
AcDbCircle
 10
-13.1825670804
 20
1.3714964912
 30
0.0
 40
0.8999999999999517
100
AcDbArc
 50
130.268884994
 51
229.2947627285
  0
ARC
  5
298
330
1F
100
AcDbEntity
  8
0
  6
Continuous
 62
     7
370
    25
100
AcDbCircle
 10
-14.3460429985
 20
2.7449315235
 30
0.0
 40
0.9000000000000296
100
AcDbArc
 50
310.268884994
 51
49.539453795
  0
ARC
  5
299
330
1F
100
AcDbEntity
  8
0
  6
Continuous
 62
     7
370
    25
100
AcDbCircle
 10
-13.1934717332
 20
4.0963022851
 30
0.0
 40
0.8761259687305015
100
AcDbArc
 50
129.9151124459
 51
229.539453795
  0
ARC
  5
29A
330
1F
100
AcDbEntity
  8
0
  6
Continuous
 62
     7
370
    25
100
AcDbCircle
 10
-14.3331264391
 20
5.4585836834
 30
0.0
 40
0.900000000000005
100
AcDbArc
 50
309.9151124459
 51
50.0848875541
  0
ARC
  5
29B
330
1F
100
AcDbEntity
  8
0
  6
Continuous
 62
     7
370
    25
100
AcDbCircle
 10
-13.1871002633
 20
6.8154830918
 30
0.0
 40
0.8761259687304997
100
AcDbArc
 50
129.9151124459
 51
229.539453795
  0
ARC
  5
29C
330
1F
100
AcDbEntity
  8
0
  6
Continuous
 62
     7
370
    25
100
AcDbCircle
 10
-14.3267549692
 20
8.1777644901
 30
0.0
 40
0.9000000000000018
100
AcDbArc
 50
309.9151124459
 51
50.0848875541
  0
ARC
  5
29D
330
1F
100
AcDbEntity
  8
0
  6
Continuous
 62
     7
370
    25
100
AcDbCircle
 10
-13.1717814445
 20
9.5583571733
 30
0.0
 40
0.8999999999999639
100
AcDbArc
 50
130.268884994
 51
230.0848875584
  0
ARC
  5
29E
330
1F
100
AcDbEntity
  8
0
  6
Continuous
 62
     7
370
    25
100
AcDbCircle
 10
-14.3352573625
 20
10.9317922057
 30
0.0
 40
0.9000000000000206
100
AcDbArc
 50
310.268884994
 51
49.539453795
  0
ARC
  5
29F
330
1F
100
AcDbEntity
  8
0
  6
Continuous
 62
     7
370
    25
100
AcDbCircle
 10
-13.1826860963
 20
12.2831629665
 30
0.0
 40
0.8761259687305154
100
AcDbArc
 50
129.9151123566
 51
229.5394537099
  0
ARC
  5
2A0
330
1F
100
AcDbEntity
  8
0
  6
Continuous
 62
     7
370
    25
100
AcDbCircle
 10
-14.3223408011
 20
13.6454443656
 30
0.0
 40
0.8999999999999972
100
AcDbArc
 50
309.9151124459
 51
49.2947627285
  0
ARC
  5
2A1
330
1F
100
AcDbEntity
  8
0
  6
Continuous
 62
     7
370
    25
100
AcDbCircle
 10
-13.1484389404
 20
15.0099788729
 30
0.0
 40
0.8999999999999543
100
AcDbArc
 50
130.268884994
 51
229.2947627285
  0
ARC
  5
2A2
330
1F
100
AcDbEntity
  8
0
  6
Continuous
 62
     7
370
    25
100
AcDbCircle
 10
-14.3119148585
 20
16.3834139053
 30
0.0
 40
0.9000000000000344
100
AcDbArc
 50
310.268884994
 51
49.539453795
  0
ARC
  5
2A3
330
1F
100
AcDbEntity
  8
0
  6
Continuous
 62
     7
370
    25
100
AcDbCircle
 10
-13.1593435932
 20
17.7347846669
 30
0.0
 40
0.876125968730502
100
AcDbArc
 50
129.9151124459
 51
229.539453795
  0
ARC
  5
2A4
330
1F
100
AcDbEntity
  8
0
  6
Continuous
 62
     7
370
    25
100
AcDbCircle
 10
-14.2989982991
 20
19.0970660652
 30
0.0
 40
0.9
100
AcDbArc
 50
309.9151124459
 51
50.0848875541
  0
ARC
  5
2A5
330
1F
100
AcDbEntity
  8
0
  6
Continuous
 62
     7
370
    25
100
AcDbCircle
 10
-13.1529721234
 20
20.4539654735
 30
0.0
 40
0.8761259687305034
100
AcDbArc
 50
129.9151124459
 51
229.539453795
  0
ARC
  5
2A6
330
1F
100
AcDbEntity
  8
0
  6
Continuous
 62
     7
370
    25
100
AcDbCircle
 10
-14.2926268292
 20
21.8162468718
 30
0.0
 40
0.9000000000000066
100
AcDbArc
 50
309.9151124459
 51
50.0848875541
  0
ARC
  5
2A7
330
1F
100
AcDbEntity
  8
0
  6
Continuous
 62
     7
370
    25
100
AcDbCircle
 10
-13.1466006535
 20
23.1731462801
 30
0.0
 40
0.8761259687304954
100
AcDbArc
 50
137.0997384652
 51
229.539453795
  0
ARC
  5
2A8
330
1F
100
AcDbEntity
  8
0
  6
Continuous
 62
     7
370
    25
100
AcDbCircle
 10
-14.0081597254
 20
23.9737637043
 30
0.0
 40
0.3000000000000103
100
AcDbArc
 50
317.0997384652
 51
359.7272831205
  0
ARC
  5
2A9
330
1F
100
AcDbEntity
  8
0
  6
Continuous
 62
     7
370
    25
100
AcDbCircle
 10
-12.3934905486
 20
24.959542101
 30
0.0
 40
1.309999999977662
100
AcDbArc
 50
0.272716879
 51
180.1817607599
  0
ARC
  5
2AA
330
1F
100
AcDbEntity
  8
0
  6
Continuous
 62
     7
370
    25
100
AcDbCircle
 10
-10.7788296195
 20
23.9841547656
 30
0.0
 40
0.3000000000000335
100
AcDbArc
 50
180.2727168795
 51
222.9002615348
  0
ARC
  5
2AB
330
1F
100
AcDbEntity
  8
0
  6
Continuous
 62
     7
370
    25
100
AcDbCircle
 10
-11.6403886915
 20
23.1835373414
 30
0.0
 40
0.8761259687304973
100
AcDbArc
 50
310.460546205
 51
42.9002615348
  0
ARC
  5
2AC
330
1F
100
AcDbEntity
  8
0
  6
Continuous
 62
     7
370
    25
100
AcDbCircle
 10
-10.4943625157
 20
21.8266379331
 30
0.0
 40
0.8999999999999984
100
AcDbArc
 50
129.9151124459
 51
230.0848875541
  0
ARC
  5
2AD
330
1F
100
AcDbEntity
  8
0
  6
Continuous
 62
     7
370
    25
100
AcDbCircle
 10
-11.6340172216
 20
20.4643565348
 30
0.0
 40
0.8761259687305089
100
AcDbArc
 50
310.460546205
 51
50.0848875541
  0
ARC
  5
2AE
330
1F
100
AcDbEntity
  8
0
  6
Continuous
 62
     7
370
    25
100
AcDbCircle
 10
-10.4879910459
 20
19.1074571265
 30
0.0
 40
0.9000000000000047
100
AcDbArc
 50
129.9151124459
 51
230.0848875541
  0
ARC
  5
2AF
330
1F
100
AcDbEntity
  8
0
  6
Continuous
 62
     7
370
    25
100
AcDbCircle
 10
-11.6276457518
 20
17.7451757282
 30
0.0
 40
0.8761259687304928
100
AcDbArc
 50
310.460546205
 51
50.0848875541
  0
ARC
  5
2B0
330
1F
100
AcDbEntity
  8
0
  6
Continuous
 62
     7
370
    25
100
AcDbCircle
 10
-10.4750744865
 20
16.3938049666
 30
0.0
 40
0.9000000000000368
100
AcDbArc
 50
130.460546205
 51
229.731115006
  0
ARC
  5
2B1
330
1F
100
AcDbEntity
  8
0
  6
Continuous
 62
     7
370
    25
100
AcDbCircle
 10
-11.6385504045
 20
15.0203699342
 30
0.0
 40
0.8999999999999552
100
AcDbArc
 50
310.7052372715
 51
49.731115006
  0
ARC
  5
2B2
330
1F
100
AcDbEntity
  8
0
  6
Continuous
 62
     7
370
    25
100
AcDbCircle
 10
-10.4646485439
 20
13.655835427
 30
0.0
 40
0.8999999999999917
100
AcDbArc
 50
130.7052372715
 51
230.0848875541
  0
ARC
  5
2B3
330
1F
100
AcDbEntity
  8
0
  6
Continuous
 62
     7
370
    25
100
AcDbCircle
 10
-11.6043032487
 20
12.2935540278
 30
0.0
 40
0.8761259687305162
100
AcDbArc
 50
310.4605462901
 51
50.0848876434
  0
ARC
  5
2B4
330
1F
100
AcDbEntity
  8
0
  6
Continuous
 62
     7
370
    25
100
AcDbCircle
 10
-10.4517319825
 20
10.942183267
 30
0.0
 40
0.9000000000000208
100
AcDbArc
 50
130.460546205
 51
229.731115006
  0
ARC
  5
2B5
330
1F
100
AcDbEntity
  8
0
  6
Continuous
 62
     7
370
    25
100
AcDbCircle
 10
-11.6152079005
 20
9.5687482347
 30
0.0
 40
0.8999999999999592
100
AcDbArc
 50
309.9151124416
 51
49.731115006
  0
ARC
  5
2B6
330
1F
100
AcDbEntity
  8
0
  6
Continuous
 62
     7
370
    25
100
AcDbCircle
 10
-10.4602343758
 20
8.1881555514
 30
0.0
 40
0.9000000000000022
100
AcDbArc
 50
129.9151124459
 51
230.0848875541
  0
ARC
  5
2B7
330
1F
100
AcDbEntity
  8
0
  6
Continuous
 62
     7
370
    25
100
AcDbCircle
 10
-11.5998890816
 20
6.8258741531
 30
0.0
 40
0.8761259687304975
100
AcDbArc
 50
310.460546205
 51
50.0848875541
  0
ARC
  5
2B8
330
1F
100
AcDbEntity
  8
0
  6
Continuous
 62
     7
370
    25
100
AcDbCircle
 10
-10.4538629059
 20
5.4689747448
 30
0.0
 40
0.900000000000005
100
AcDbArc
 50
129.9151124459
 51
230.0848875541
  0
ARC
  5
2B9
330
1F
100
AcDbEntity
  8
0
  6
Continuous
 62
     7
370
    25
100
AcDbCircle
 10
-11.5935176118
 20
4.1066933465
 30
0.0
 40
0.8761259687304984
100
AcDbArc
 50
310.460546205
 51
50.0848875541
  0
ARC
  5
2BA
330
1F
100
AcDbEntity
  8
0
  6
Continuous
 62
     7
370
    25
100
AcDbCircle
 10
-10.4409463465
 20
2.7553225849
 30
0.0
 40
0.9000000000000279
100
AcDbArc
 50
130.460546205
 51
229.731115006
  0
ARC
  5
2BB
330
1F
100
AcDbEntity
  8
0
  6
Continuous
 62
     7
370
    25
100
AcDbCircle
 10
-11.6044222646
 20
1.3818875525
 30
0.0
 40
0.899999999999953
100
AcDbArc
 50
310.7052372715
 51
49.731115006
  0
ARC
  5
2BC
330
1F
100
AcDbEntity
  8
0
  6
Continuous
 62
     7
370
    25
100
AcDbCircle
 10
-10.4305204039
 20
0.0173530452
 30
0.0
 40
0.9000000000000024
100
AcDbArc
 50
130.7052372715
 51
230.0848875541
  0
ARC
  5
2BD
330
1F
100
AcDbEntity
  8
0
  6
Continuous
 62
     7
370
    25
100
AcDbCircle
 10
-11.5701751098
 20
-1.3449283531
 30
0.0
 40
0.8761259687305091
100
AcDbArc
 50
310.460546205
 51
50.0848875541
  0
ARC
  5
2BE
330
1F
100
AcDbEntity
  8
0
  6
Continuous
 62
     7
370
    25
100
AcDbCircle
 10
-10.4176038445
 20
-2.6962991147
 30
0.0
 40
0.9000000000000139
100
AcDbArc
 50
130.4605462049
 51
229.7311150059
  0
ARC
  5
2BF
330
1F
100
AcDbEntity
  8
0
  6
Continuous
 62
     7
370
    25
100
AcDbCircle
 10
-11.5810797626
 20
-4.069734147
 30
0.0
 40
0.9000000000012895
100
AcDbArc
 50
312.5100740147
 51
49.731115006
  0
ARC
  5
2C0
330
1F
100
AcDbEntity
  8
0
  6
Continuous
 62
     7
370
    25
100
AcDbCircle
 10
-10.3954451542
 20
-5.4234731746
 30
0.0
 40
0.9000000000000008
100
AcDbArc
 50
129.91511245
 51
230.0848875541
  0
ARC
  5
2C1
330
1F
100
AcDbEntity
  8
0
  6
Continuous
 62
     7
370
    25
100
AcDbCircle
 10
-11.5350998601
 20
-6.7857545729
 30
0.0
 40
0.8761259687305014
100
AcDbArc
 50
310.460546205
 51
50.0848875541
  0
ARC
  5
2C2
330
1F
100
AcDbEntity
  8
0
  6
Continuous
 62
     7
370
    25
100
AcDbCircle
 10
-10.3890736844
 20
-8.1426539812
 30
0.0
 40
0.9000000000000075
100
AcDbArc
 50
129.9151124459
 51
230.0848875541
  0
ARC
  5
2C3
330
1F
100
AcDbEntity
  8
0
  6
Continuous
 62
     7
370
    25
100
AcDbCircle
 10
-11.5287283903
 20
-9.5049353795
 30
0.0
 40
0.8761259687305021
100
AcDbArc
 50
310.460546205
 51
50.0848875541
  0
ARC
  5
2C4
330
1F
100
AcDbEntity
  8
0
  6
Continuous
 62
     7
370
    25
100
AcDbCircle
 10
-10.376157125
 20
-10.8563061411
 30
0.0
 40
0.9000000000000303
100
AcDbArc
 50
130.460546205
 51
229.731115006
  0
ARC
  5
2C5
330
1F
100
AcDbEntity
  8
0
  6
Continuous
 62
     7
370
    25
100
AcDbCircle
 10
-11.5396330441
 20
-12.2297411726
 30
0.0
 40
0.8999999999999496
100
AcDbArc
 50
310.7052371801
 51
49.7311149188
  0
ARC
  5
2C6
330
1F
100
AcDbEntity
  8
0
  6
Continuous
 62
     7
370
    25
100
AcDbCircle
 10
-10.3657311845
 20
-13.5942756808
 30
0.0
 40
0.9000000000000079
100
AcDbArc
 50
130.7052372715
 51
230.0848875541
  0
ARC
  5
2C7
330
1F
100
AcDbEntity
  8
0
  6
Continuous
 62
     7
370
    25
100
AcDbCircle
 10
-11.5053858904
 20
-14.9565570791
 30
0.0
 40
0.8761259687305041
100
AcDbArc
 50
310.460546205
 51
50.0848875541
  0
ARC
  5
2C8
330
1F
100
AcDbEntity
  8
0
  6
Continuous
 62
     7
370
    25
100
AcDbCircle
 10
-10.3528146251
 20
-16.3079278407
 30
0.0
 40
0.9000000000000237
100
AcDbArc
 50
130.460546205
 51
229.731115006
  0
ARC
  5
2C9
330
1F
100
AcDbEntity
  8
0
  6
Continuous
 62
     7
370
    25
100
AcDbCircle
 10
-11.5162877709
 20
-17.6813596004
 30
0.0
 40
0.8999957110097411
100
AcDbArc
 50
310.09199872
 51
49.731115006
  0
ARC
  5
2CA
330
1F
100
AcDbEntity
  8
0
  6
Continuous
 62
     7
370
    25
100
AcDbCircle
 10
-10.3570602873
 20
-19.0583767394
 30
0.0
 40
0.9000000000000092
100
AcDbArc
 50
130.09199872
 51
230.0848875541
  0
ARC
  5
2CB
330
1F
100
AcDbEntity
  8
0
  6
Continuous
 62
     7
370
    25
100
AcDbCircle
 10
-11.4967149932
 20
-20.4206581377
 30
0.0
 40
0.8761259687304961
100
AcDbArc
 50
310.460546205
 51
50.0848875541
  0
ARC
  5
2CC
330
1F
100
AcDbEntity
  8
0
  6
Continuous
 62
     7
370
    25
100
AcDbCircle
 10
-10.3268782804
 20
-21.7569189959
 30
0.0
 40
0.9000000000000101
100
AcDbArc
 50
131.9212152539
 51
180.0
  0
ARC
  5
2CD
330
1F
100
AcDbEntity
  8
0
  6
Continuous
 62
     7
370
    25
100
AcDbCircle
 10
-6.2114249837
 20
-21.7933554713
 30
0.0
 40
0.9000000000000128
100
AcDbArc
 50
0.0
 51
48.0787847461
  0
ARC
  5
2CE
330
1F
100
AcDbEntity
  8
0
  6
Continuous
 62
     7
370
    25
100
AcDbCircle
 10
-5.0415882709
 20
-20.4570946131
 30
0.0
 40
0.8761259687304968
100
AcDbArc
 50
129.9151124459
 51
229.539453795
  0
ARC
  5
2CF
330
1F
100
AcDbEntity
  8
0
  6
Continuous
 62
     7
370
    25
100
AcDbCircle
 10
-6.1812429768
 20
-19.0948132148
 30
0.0
 40
0.8999999999999979
100
AcDbArc
 50
309.9151124459
 51
49.90800128
  0
ARC
  5
2D0
330
1F
100
AcDbEntity
  8
0
  6
Continuous
 62
     7
370
    25
100
AcDbCircle
 10
-5.0220154932
 20
-17.7177960758
 30
0.0
 40
0.8999957110097401
100
AcDbArc
 50
130.268884994
 51
229.90800128
  0
ARC
  5
2D1
330
1F
100
AcDbEntity
  8
0
  6
Continuous
 62
     7
370
    25
100
AcDbCircle
 10
-6.185488639
 20
-16.3443643161
 30
0.0
 40
0.9000000000000256
100
AcDbArc
 50
310.268884994
 51
49.539453795
  0
ARC
  5
2D2
330
1F
100
AcDbEntity
  8
0
  6
Continuous
 62
     7
370
    25
100
AcDbCircle
 10
-5.0329173737
 20
-14.9929935545
 30
0.0
 40
0.8761259687305065
100
AcDbArc
 50
129.9151124459
 51
229.539453795
  0
ARC
  5
2D3
330
1F
100
AcDbEntity
  8
0
  6
Continuous
 62
     7
370
    25
100
AcDbCircle
 10
-6.1725720796
 20
-13.6307121562
 30
0.0
 40
0.9000000000000041
100
AcDbArc
 50
309.9151124459
 51
49.2947627285
  0
ARC
  5
2D4
330
1F
100
AcDbEntity
  8
0
  6
Continuous
 62
     7
370
    25
100
AcDbCircle
 10
-4.99867022
 20
-12.266177648
 30
0.0
 40
0.8999999999999551
100
AcDbArc
 50
130.2688850812
 51
229.2947628199
  0
ARC
  5
2D5
330
1F
100
AcDbEntity
  8
0
  6
Continuous
 62
     7
370
    25
100
AcDbCircle
 10
-6.1621461391
 20
-10.8927426165
 30
0.0
 40
0.9000000000000308
100
AcDbArc
 50
310.268884994
 51
49.539453795
  0
ARC
  5
2D6
330
1F
100
AcDbEntity
  8
0
  6
Continuous
 62
     7
370
    25
100
AcDbCircle
 10
-5.0095748738
 20
-9.5413718549
 30
0.0
 40
0.8761259687305005
100
AcDbArc
 50
129.9151124459
 51
229.539453795
  0
ARC
  5
2D7
330
1F
100
AcDbEntity
  8
0
  6
Continuous
 62
     7
370
    25
100
AcDbCircle
 10
-6.1492295797
 20
-8.1790904566
 30
0.0
 40
0.9000000000000045
100
AcDbArc
 50
309.9151124459
 51
50.0848875541
  0
ARC
  5
2D8
330
1F
100
AcDbEntity
  8
0
  6
Continuous
 62
     7
370
    25
100
AcDbCircle
 10
-5.003203404
 20
-6.8221910483
 30
0.0
 40
0.8761259687305021
100
AcDbArc
 50
129.9151124459
 51
229.539453795
  0
ARC
  5
2D9
330
1F
100
AcDbEntity
  8
0
  6
Continuous
 62
     7
370
    25
100
AcDbCircle
 10
-6.1428581099
 20
-5.45990965
 30
0.0
 40
0.9
100
AcDbArc
 50
309.9151124459
 51
50.08488755
  0
ARC
  5
2DA
330
1F
100
AcDbEntity
  8
0
  6
Continuous
 62
     7
370
    25
100
AcDbCircle
 10
-4.9572235015
 20
-4.1061706224
 30
0.0
 40
0.9000000000012892
100
AcDbArc
 50
130.268884994
 51
227.4899259853
  0
ARC
  5
2DB
330
1F
100
AcDbEntity
  8
0
  6
Continuous
 62
     7
370
    25
100
AcDbCircle
 10
-6.1206994196
 20
-2.7327355901
 30
0.0
 40
0.900000000000007
100
AcDbArc
 50
310.2688849941
 51
49.5394537951
  0
ARC
  5
2DC
330
1F
100
AcDbEntity
  8
0
  6
Continuous
 62
     7
370
    25
100
AcDbCircle
 10
-4.9681281543
 20
-1.3813648285
 30
0.0
 40
0.876125968730508
100
AcDbArc
 50
129.9151124459
 51
229.539453795
  0
ARC
  5
2DD
330
1F
100
AcDbEntity
  8
0
  6
Continuous
 62
     7
370
    25
100
AcDbCircle
 10
-6.1077828602
 20
-0.0190834302
 30
0.0
 40
0.8999999999999984
100
AcDbArc
 50
309.9151124459
 51
49.2947627285
  0
ARC
  5
2DE
330
1F
100
AcDbEntity
  8
0
  6
Continuous
 62
     7
370
    25
100
AcDbCircle
 10
-4.9338809995
 20
1.3454510771
 30
0.0
 40
0.8999999999999517
100
AcDbArc
 50
130.268884994
 51
229.2947627285
  0
ARC
  5
2DF
330
1F
100
AcDbEntity
  8
0
  6
Continuous
 62
     7
370
    25
100
AcDbCircle
 10
-6.0973569176
 20
2.7188861095
 30
0.0
 40
0.9000000000000309
100
AcDbArc
 50
310.268884994
 51
49.539453795
  0
ARC
  5
2E0
330
1F
100
AcDbEntity
  8
0
  6
Continuous
 62
     7
370
    25
100
AcDbCircle
 10
-4.9447856523
 20
4.0702568711
 30
0.0
 40
0.876125968730499
100
AcDbArc
 50
129.9151124459
 51
229.539453795
  0
ARC
  5
2E1
330
1F
100
AcDbEntity
  8
0
  6
Continuous
 62
     7
370
    25
100
AcDbCircle
 10
-6.0844403582
 20
5.4325382694
 30
0.0
 40
0.9000000000000028
100
AcDbArc
 50
309.9151124459
 51
50.0848875541
  0
ARC
  5
2E2
330
1F
100
AcDbEntity
  8
0
  6
Continuous
 62
     7
370
    25
100
AcDbCircle
 10
-4.9384141825
 20
6.7894376777
 30
0.0
 40
0.8761259687304986
100
AcDbArc
 50
129.9151124459
 51
229.539453795
  0
ARC
  5
2E3
330
1F
100
AcDbEntity
  8
0
  6
Continuous
 62
     7
370
    25
100
AcDbCircle
 10
-6.0780688883
 20
8.151719076
 30
0.0
 40
0.9000000000000019
100
AcDbArc
 50
309.9151124459
 51
50.0848875541
  0
ARC
  5
2E4
330
1F
100
AcDbEntity
  8
0
  6
Continuous
 62
     7
370
    25
100
AcDbCircle
 10
-4.9230953636
 20
9.5323117593
 30
0.0
 40
0.8999999999999637
100
AcDbArc
 50
130.268884994
 51
230.0848875584
  0
ARC
  5
2E5
330
1F
100
AcDbEntity
  8
0
  6
Continuous
 62
     7
370
    25
100
AcDbCircle
 10
-6.0865712816
 20
10.9057467916
 30
0.0
 40
0.9000000000000191
100
AcDbArc
 50
310.268884994
 51
49.539453795
  0
ARC
  5
2E6
330
1F
100
AcDbEntity
  8
0
  6
Continuous
 62
     7
370
    25
100
AcDbCircle
 10
-4.9340000154
 20
12.2571175524
 30
0.0
 40
0.8761259687305172
100
AcDbArc
 50
129.9151123566
 51
229.5394537099
  0
ARC
  5
2E7
330
1F
100
AcDbEntity
  8
0
  6
Continuous
 62
     7
370
    25
100
AcDbCircle
 10
-6.0736547202
 20
13.6193989516
 30
0.0
 40
0.8999999999999942
100
AcDbArc
 50
309.9151124459
 51
49.2947627285
  0
ARC
  5
2E8
330
1F
100
AcDbEntity
  8
0
  6
Continuous
 62
     7
370
    25
100
AcDbCircle
 10
-4.8997528596
 20
14.9839334588
 30
0.0
 40
0.8999999999999448
100
AcDbArc
 50
130.268884994
 51
229.2947627285
  0
ARC
  5
2E9
330
1F
100
AcDbEntity
  8
0
  6
Continuous
 62
     7
370
    25
100
AcDbCircle
 10
-6.0632287776
 20
16.3573684912
 30
0.0
 40
0.9000000000000317
100
AcDbArc
 50
310.268884994
 51
49.539453795
  0
ARC
  5
2EA
330
1F
100
AcDbEntity
  8
0
  6
Continuous
 62
     7
370
    25
100
AcDbCircle
 10
-4.9106575123
 20
17.7087392528
 30
0.0
 40
0.876125968730499
100
AcDbArc
 50
129.9151124459
 51
229.539453795
  0
ARC
  5
2EB
330
1F
100
AcDbEntity
  8
0
  6
Continuous
 62
     7
370
    25
100
AcDbCircle
 10
-6.0503122182
 20
19.0710206511
 30
0.0
 40
0.9000000000000045
100
AcDbArc
 50
309.9151124459
 51
50.0848875541
  0
ARC
  5
2EC
330
1F
100
AcDbEntity
  8
0
  6
Continuous
 62
     7
370
    25
100
AcDbCircle
 10
-4.9042860425
 20
20.4279200594
 30
0.0
 40
0.8761259687305013
100
AcDbArc
 50
129.9151124459
 51
229.539453795
  0
ARC
  5
2ED
330
1F
100
AcDbEntity
  8
0
  6
Continuous
 62
     7
370
    25
100
AcDbCircle
 10
-6.0439407484
 20
21.7902014577
 30
0.0
 40
0.900000000000011
100
AcDbArc
 50
309.9151124459
 51
50.0848875541
  0
ARC
  5
2EE
330
1F
100
AcDbEntity
  8
0
  6
Continuous
 62
     7
370
    25
100
AcDbCircle
 10
-4.8979145726
 20
23.147100866
 30
0.0
 40
0.8761259687304978
100
AcDbArc
 50
137.0997384652
 51
229.539453795
  0
ARC
  5
2EF
330
1F
100
AcDbEntity
  8
0
  6
Continuous
 62
     7
370
    25
100
AcDbCircle
 10
-5.7594736446
 20
23.9477182902
 30
0.0
 40
0.300000000000004
100
AcDbArc
 50
317.0997384652
 51
359.7272831205
  0
ARC
  5
2F0
330
1F
100
AcDbEntity
  8
0
  6
Continuous
 62
     7
370
    25
100
AcDbCircle
 10
-4.1448044677
 20
24.933496687
 30
0.0
 40
1.309999999977659
100
AcDbArc
 50
0.272716879
 51
180.1817607599
  0
ARC
  5
2F1
330
1F
100
AcDbEntity
  8
0
  6
Continuous
 62
     7
370
    25
100
AcDbCircle
 10
-2.5301435387
 20
23.9581093515
 30
0.0
 40
0.300000000000002
100
AcDbArc
 50
180.2727168795
 51
222.9002615348
  0
ARC
  5
2F2
330
1F
100
AcDbEntity
  8
0
  6
Continuous
 62
     7
370
    25
100
AcDbCircle
 10
-3.3917026106
 20
23.1574919274
 30
0.0
 40
0.8761259687304982
100
AcDbArc
 50
310.460546205
 51
42.9002615348
  0
ARC
  5
2F3
330
1F
100
AcDbEntity
  8
0
  6
Continuous
 62
     7
370
    25
100
AcDbCircle
 10
-2.2456764349
 20
21.800592519
 30
0.0
 40
0.9000000000000072
100
AcDbArc
 50
129.9151124459
 51
230.0848875541
  0
ARC
  5
2F4
330
1F
100
AcDbEntity
  8
0
  6
Continuous
 62
     7
370
    25
100
AcDbCircle
 10
-3.3853311407
 20
20.4383111207
 30
0.0
 40
0.8761259687305011
100
AcDbArc
 50
310.460546205
 51
50.0848875541
  0
ARC
  5
2F5
330
1F
100
AcDbEntity
  8
0
  6
Continuous
 62
     7
370
    25
100
AcDbCircle
 10
-2.239304965
 20
19.0814117124
 30
0.0
 40
0.9000000000000083
100
AcDbArc
 50
129.9151124459
 51
230.0848875541
  0
ARC
  5
2F6
330
1F
100
AcDbEntity
  8
0
  6
Continuous
 62
     7
370
    25
100
AcDbCircle
 10
-3.3789596709
 20
17.7191303141
 30
0.0
 40
0.8761259687304951
100
AcDbArc
 50
310.460546205
 51
50.0848875541
  0
ARC
  5
2F7
330
1F
100
AcDbEntity
  8
0
  6
Continuous
 62
     7
370
    25
100
AcDbCircle
 10
-2.2263884056
 20
16.3677595525
 30
0.0
 40
0.9000000000000346
100
AcDbArc
 50
130.460546205
 51
229.731115006
  0
ARC
  5
2F8
330
1F
100
AcDbEntity
  8
0
  6
Continuous
 62
     7
370
    25
100
AcDbCircle
 10
-3.3898643237
 20
14.9943245202
 30
0.0
 40
0.8999999999999498
100
AcDbArc
 50
310.7052372715
 51
49.731115006
  0
ARC
  5
2F9
330
1F
100
AcDbEntity
  8
0
  6
Continuous
 62
     7
370
    25
100
AcDbCircle
 10
-2.215962463
 20
13.6297900129
 30
0.0
 40
0.8999999999999995
100
AcDbArc
 50
130.7052372715
 51
230.0848875541
  0
ARC
  5
2FA
330
1F
100
AcDbEntity
  8
0
  6
Continuous
 62
     7
370
    25
100
AcDbCircle
 10
-3.3556171678
 20
12.2675086137
 30
0.0
 40
0.8761259687305154
100
AcDbArc
 50
310.4605462901
 51
50.0848876434
  0
ARC
  5
2FB
330
1F
100
AcDbEntity
  8
0
  6
Continuous
 62
     7
370
    25
100
AcDbCircle
 10
-2.2030459016
 20
10.916137853
 30
0.0
 40
0.9000000000000209
100
AcDbArc
 50
130.460546205
 51
229.731115006
  0
ARC
  5
2FC
330
1F
100
AcDbEntity
  8
0
  6
Continuous
 62
     7
370
    25
100
AcDbCircle
 10
-3.3665218196
 20
9.5427028206
 30
0.0
 40
0.8999999999999595
100
AcDbArc
 50
309.9151124416
 51
49.731115006
  0
ARC
  5
2FD
330
1F
100
AcDbEntity
  8
0
  6
Continuous
 62
     7
370
    25
100
AcDbCircle
 10
-2.2115482949
 20
8.1621101373
 30
0.0
 40
0.9000000000000042
100
AcDbArc
 50
129.9151124459
 51
230.0848875541
  0
ARC
  5
2FE
330
1F
100
AcDbEntity
  8
0
  6
Continuous
 62
     7
370
    25
100
AcDbCircle
 10
-3.3512030008
 20
6.799828739
 30
0.0
 40
0.8761259687304996
100
AcDbArc
 50
310.460546205
 51
50.0848875541
  0
ARC
  5
2FF
330
1F
100
AcDbEntity
  8
0
  6
Continuous
 62
     7
370
    25
100
AcDbCircle
 10
-2.205176825
 20
5.4429293307
 30
0.0
 40
0.9000000000000021
100
AcDbArc
 50
129.9151124459
 51
230.0848875541
  0
ARC
  5
300
330
1F
100
AcDbEntity
  8
0
  6
Continuous
 62
     7
370
    25
100
AcDbCircle
 10
-3.3448315309
 20
4.0806479324
 30
0.0
 40
0.8761259687304976
100
AcDbArc
 50
310.460546205
 51
50.0848875541
  0
ARC
  5
301
330
1F
100
AcDbEntity
  8
0
  6
Continuous
 62
     7
370
    25
100
AcDbCircle
 10
-2.1922602656
 20
2.7292771708
 30
0.0
 40
0.9000000000000296
100
AcDbArc
 50
130.460546205
 51
229.731115006
  0
ARC
  5
302
330
1F
100
AcDbEntity
  8
0
  6
Continuous
 62
     7
370
    25
100
AcDbCircle
 10
-3.3557361837
 20
1.3558421384
 30
0.0
 40
0.8999999999999515
100
AcDbArc
 50
310.7052372715
 51
49.731115006
  0
ARC
  5
303
330
1F
100
AcDbEntity
  8
0
  6
Continuous
 62
     7
370
    25
100
AcDbCircle
 10
-2.181834323
 20
-0.0086923688
 30
0.0
 40
0.8999999999999988
100
AcDbArc
 50
130.7052372715
 51
230.0848875541
  0
ARC
  5
304
330
1F
100
AcDbEntity
  8
0
  6
Continuous
 62
     7
370
    25
100
AcDbCircle
 10
-3.3214890289
 20
-1.3709737671
 30
0.0
 40
0.876125968730509
100
AcDbArc
 50
310.460546205
 51
50.0848875541
  0
ARC
  5
305
330
1F
100
AcDbEntity
  8
0
  6
Continuous
 62
     7
370
    25
100
AcDbCircle
 10
-2.1689177636
 20
-2.7223445287
 30
0.0
 40
0.9000000000000112
100
AcDbArc
 50
130.4605462049
 51
229.7311150059
  0
ARC
  5
306
330
1F
100
AcDbEntity
  8
0
  6
Continuous
 62
     7
370
    25
100
AcDbCircle
 10
-3.3323936817
 20
-4.0957795611
 30
0.0
 40
0.9000000000012891
100
AcDbArc
 50
312.5100740147
 51
49.731115006
  0
ARC
  5
307
330
1F
100
AcDbEntity
  8
0
  6
Continuous
 62
     7
370
    25
100
AcDbCircle
 10
-2.1467590734
 20
-5.4495185886
 30
0.0
 40
0.9000000000000011
100
AcDbArc
 50
129.91511245
 51
230.0848875541
  0
ARC
  5
308
330
1F
100
AcDbEntity
  8
0
  6
Continuous
 62
     7
370
    25
100
AcDbCircle
 10
-3.2864137792
 20
-6.8117999869
 30
0.0
 40
0.8761259687305
100
AcDbArc
 50
310.460546205
 51
50.0848875541
  0
ARC
  5
309
330
1F
100
AcDbEntity
  8
0
  6
Continuous
 62
     7
370
    25
100
AcDbCircle
 10
-2.1403876035
 20
-8.1686993953
 30
0.0
 40
0.9000000000000083
100
AcDbArc
 50
129.9151124459
 51
230.0848875541
  0
ARC
  5
30A
330
1F
100
AcDbEntity
  8
0
  6
Continuous
 62
     7
370
    25
100
AcDbCircle
 10
-3.2800423094
 20
-9.5309807936
 30
0.0
 40
0.8761259687304987
100
AcDbArc
 50
310.460546205
 51
50.0848875541
  0
ARC
  5
30B
330
1F
100
AcDbEntity
  8
0
  6
Continuous
 62
     7
370
    25
100
AcDbCircle
 10
-2.1274710441
 20
-10.8823515552
 30
0.0
 40
0.9000000000000306
100
AcDbArc
 50
130.460546205
 51
229.731115006
  0
ARC
  5
30C
330
1F
100
AcDbEntity
  8
0
  6
Continuous
 62
     7
370
    25
100
AcDbCircle
 10
-3.2909469632
 20
-12.2557865866
 30
0.0
 40
0.899999999999954
100
AcDbArc
 50
310.7052371801
 51
49.7311149188
  0
ARC
  5
30D
330
1F
100
AcDbEntity
  8
0
  6
Continuous
 62
     7
370
    25
100
AcDbCircle
 10
-2.1170451036
 20
-13.6203210948
 30
0.0
 40
0.9000000000000044
100
AcDbArc
 50
130.7052372715
 51
230.0848875541
  0
ARC
  5
30E
330
1F
100
AcDbEntity
  8
0
  6
Continuous
 62
     7
370
    25
100
AcDbCircle
 10
-3.2566998095
 20
-14.9826024931
 30
0.0
 40
0.8761259687305027
100
AcDbArc
 50
310.460546205
 51
50.0848875541
  0
ARC
  5
30F
330
1F
100
AcDbEntity
  8
0
  6
Continuous
 62
     7
370
    25
100
AcDbCircle
 10
-2.1041285443
 20
-16.3339732547
 30
0.0
 40
0.9000000000000264
100
AcDbArc
 50
130.460546205
 51
229.731115006
  0
ARC
  5
310
330
1F
100
AcDbEntity
  8
0
  6
Continuous
 62
     7
370
    25
100
AcDbCircle
 10
-3.26760169
 20
-17.7074050145
 30
0.0
 40
0.8999957110097406
100
AcDbArc
 50
310.09199872
 51
49.731115006
  0
ARC
  5
311
330
1F
100
AcDbEntity
  8
0
  6
Continuous
 62
     7
370
    25
100
AcDbCircle
 10
-2.1083742064
 20
-19.0844221534
 30
0.0
 40
0.9000000000000028
100
AcDbArc
 50
130.09199872
 51
230.0848875541
  0
ARC
  5
312
330
1F
100
AcDbEntity
  8
0
  6
Continuous
 62
     7
370
    25
100
AcDbCircle
 10
-3.2480289123
 20
-20.4467035517
 30
0.0
 40
0.8761259687305003
100
AcDbArc
 50
310.460546205
 51
50.0848875541
  0
ARC
  5
313
330
1F
100
AcDbEntity
  8
0
  6
Continuous
 62
     7
370
    25
100
AcDbCircle
 10
-2.0781921996
 20
-21.78296441
 30
0.0
 40
0.8999999999999728
100
AcDbArc
 50
131.9212152539
 51
180.0
  0
ARC
  5
314
330
1F
100
AcDbEntity
  8
0
  6
Continuous
 62
     7
370
    25
100
AcDbCircle
 10
2.0272610972
 20
-21.78296441
 30
0.0
 40
0.8999999999999799
100
AcDbArc
 50
0.0
 51
48.0787847461
  0
ARC
  5
315
330
1F
100
AcDbEntity
  8
0
  6
Continuous
 62
     7
370
    25
100
AcDbCircle
 10
3.1970978099
 20
-20.4467035517
 30
0.0
 40
0.8761259687304986
100
AcDbArc
 50
129.9151124459
 51
229.539453795
  0
ARC
  5
316
330
1F
100
AcDbEntity
  8
0
  6
Continuous
 62
     7
370
    25
100
AcDbCircle
 10
2.057443104
 20
-19.0844221534
 30
0.0
 40
0.8999999999999995
100
AcDbArc
 50
309.9151124459
 51
49.90800128
  0
ARC
  5
317
330
1F
100
AcDbEntity
  8
0
  6
Continuous
 62
     7
370
    25
100
AcDbCircle
 10
3.2166705877
 20
-17.7074050145
 30
0.0
 40
0.8999957110097371
100
AcDbArc
 50
130.268884994
 51
229.90800128
  0
ARC
  5
318
330
1F
100
AcDbEntity
  8
0
  6
Continuous
 62
     7
370
    25
100
AcDbCircle
 10
2.0531974419
 20
-16.3339732547
 30
0.0
 40
0.9000000000000281
100
AcDbArc
 50
310.268884994
 51
49.539453795
  0
ARC
  5
319
330
1F
100
AcDbEntity
  8
0
  6
Continuous
 62
     7
370
    25
100
AcDbCircle
 10
3.2057687072
 20
-14.9826024931
 30
0.0
 40
0.8761259687305016
100
AcDbArc
 50
129.9151124459
 51
229.539453795
  0
ARC
  5
31A
330
1F
100
AcDbEntity
  8
0
  6
Continuous
 62
     7
370
    25
100
AcDbCircle
 10
2.0661140013
 20
-13.6203210948
 30
0.0
 40
0.9000000000000067
100
AcDbArc
 50
309.9151124459
 51
49.2947627285
  0
ARC
  5
31B
330
1F
100
AcDbEntity
  8
0
  6
Continuous
 62
     7
370
    25
100
AcDbCircle
 10
3.2400158609
 20
-12.2557865866
 30
0.0
 40
0.8999999999999561
100
AcDbArc
 50
130.2688850812
 51
229.2947628199
  0
ARC
  5
31C
330
1F
100
AcDbEntity
  8
0
  6
Continuous
 62
     7
370
    25
100
AcDbCircle
 10
2.0765399418
 20
-10.8823515552
 30
0.0
 40
0.9000000000000314
100
AcDbArc
 50
310.268884994
 51
49.539453795
  0
ARC
  5
31D
330
1F
100
AcDbEntity
  8
0
  6
Continuous
 62
     7
370
    25
100
AcDbCircle
 10
3.229111207
 20
-9.5309807936
 30
0.0
 40
0.8761259687304972
100
AcDbArc
 50
129.9151124459
 51
229.539453795
  0
ARC
  5
31E
330
1F
100
AcDbEntity
  8
0
  6
Continuous
 62
     7
370
    25
100
AcDbCircle
 10
2.0894565011
 20
-8.1686993953
 30
0.0
 40
0.9000000000000091
100
AcDbArc
 50
309.9151124459
 51
50.0848875541
  0
ARC
  5
31F
330
1F
100
AcDbEntity
  8
0
  6
Continuous
 62
     7
370
    25
100
AcDbCircle
 10
3.2354826769
 20
-6.8117999869
 30
0.0
 40
0.8761259687305009
100
AcDbArc
 50
129.9151124459
 51
229.539453795
  0
ARC
  5
320
330
1F
100
AcDbEntity
  8
0
  6
Continuous
 62
     7
370
    25
100
AcDbCircle
 10
2.095827971
 20
-5.4495185886
 30
0.0
 40
0.9000000000000001
100
AcDbArc
 50
309.9151124459
 51
50.08488755
  0
ARC
  5
321
330
1F
100
AcDbEntity
  8
0
  6
Continuous
 62
     7
370
    25
100
AcDbCircle
 10
3.2814625793
 20
-4.0957795611
 30
0.0
 40
0.900000000001289
100
AcDbArc
 50
130.268884994
 51
227.4899259853
  0
ARC
  5
322
330
1F
100
AcDbEntity
  8
0
  6
Continuous
 62
     7
370
    25
100
AcDbCircle
 10
2.1179866613
 20
-2.7223445287
 30
0.0
 40
0.9000000000000087
100
AcDbArc
 50
310.2688849941
 51
49.5394537951
  0
ARC
  5
323
330
1F
100
AcDbEntity
  8
0
  6
Continuous
 62
     7
370
    25
100
AcDbCircle
 10
3.2705579266
 20
-1.3709737671
 30
0.0
 40
0.8761259687305074
100
AcDbArc
 50
129.9151124459
 51
229.539453795
  0
ARC
  5
324
330
1F
100
AcDbEntity
  8
0
  6
Continuous
 62
     7
370
    25
100
AcDbCircle
 10
2.1309032207
 20
-0.0086923688
 30
0.0
 40
0.8999999999999998
100
AcDbArc
 50
309.9151124459
 51
49.2947627285
  0
ARC
  5
325
330
1F
100
AcDbEntity
  8
0
  6
Continuous
 62
     7
370
    25
100
AcDbCircle
 10
3.3048050813
 20
1.3558421384
 30
0.0
 40
0.8999999999999517
100
AcDbArc
 50
130.268884994
 51
229.2947627285
  0
ARC
  5
326
330
1F
100
AcDbEntity
  8
0
  6
Continuous
 62
     7
370
    25
100
AcDbCircle
 10
2.1413291633
 20
2.7292771708
 30
0.0
 40
0.9000000000000303
100
AcDbArc
 50
310.268884994
 51
49.539453795
  0
ARC
  5
327
330
1F
100
AcDbEntity
  8
0
  6
Continuous
 62
     7
370
    25
100
AcDbCircle
 10
3.2939004286
 20
4.0806479324
 30
0.0
 40
0.8761259687304992
100
AcDbArc
 50
129.9151124459
 51
229.539453795
  0
ARC
  5
328
330
1F
100
AcDbEntity
  8
0
  6
Continuous
 62
     7
370
    25
100
AcDbCircle
 10
2.1542457227
 20
5.4429293307
 30
0.0
 40
0.9000000000000012
100
AcDbArc
 50
309.9151124459
 51
50.0848875541
  0
ARC
  5
329
330
1F
100
AcDbEntity
  8
0
  6
Continuous
 62
     7
370
    25
100
AcDbCircle
 10
3.3002718984
 20
6.799828739
 30
0.0
 40
0.876125968730501
100
AcDbArc
 50
129.9151124459
 51
229.539453795
  0
ARC
  5
32A
330
1F
100
AcDbEntity
  8
0
  6
Continuous
 62
     7
370
    25
100
AcDbCircle
 10
2.1606171925
 20
8.1621101373
 30
0.0
 40
0.9000000000000042
100
AcDbArc
 50
309.9151124459
 51
50.0848875541
  0
ARC
  5
32B
330
1F
100
AcDbEntity
  8
0
  6
Continuous
 62
     7
370
    25
100
AcDbCircle
 10
3.3155907173
 20
9.5427028206
 30
0.0
 40
0.8999999999999592
100
AcDbArc
 50
130.268884994
 51
230.0848875584
  0
ARC
  5
32C
330
1F
100
AcDbEntity
  8
0
  6
Continuous
 62
     7
370
    25
100
AcDbCircle
 10
2.1521147992
 20
10.916137853
 30
0.0
 40
0.900000000000017
100
AcDbArc
 50
310.268884994
 51
49.539453795
  0
ARC
  5
32D
330
1F
100
AcDbEntity
  8
0
  6
Continuous
 62
     7
370
    25
100
AcDbCircle
 10
3.3046860655
 20
12.2675086137
 30
0.0
 40
0.8761259687305185
100
AcDbArc
 50
129.9151123566
 51
229.5394537099
  0
ARC
  5
32E
330
1F
100
AcDbEntity
  8
0
  6
Continuous
 62
     7
370
    25
100
AcDbCircle
 10
2.1650313607
 20
13.6297900129
 30
0.0
 40
0.8999999999999986
100
AcDbArc
 50
309.9151124459
 51
49.2947627285
  0
ARC
  5
32F
330
1F
100
AcDbEntity
  8
0
  6
Continuous
 62
     7
370
    25
100
AcDbCircle
 10
3.3389332213
 20
14.9943245202
 30
0.0
 40
0.8999999999999465
100
AcDbArc
 50
130.268884994
 51
229.2947627285
  0
ARC
  5
330
330
1F
100
AcDbEntity
  8
0
  6
Continuous
 62
     7
370
    25
100
AcDbCircle
 10
2.1754573033
 20
16.3677595525
 30
0.0
 40
0.900000000000037
100
AcDbArc
 50
310.268884994
 51
49.539453795
  0
ARC
  5
331
330
1F
100
AcDbEntity
  8
0
  6
Continuous
 62
     7
370
    25
100
AcDbCircle
 10
3.3280285685
 20
17.7191303141
 30
0.0
 40
0.8761259687304991
100
AcDbArc
 50
129.9151124459
 51
229.539453795
  0
ARC
  5
332
330
1F
100
AcDbEntity
  8
0
  6
Continuous
 62
     7
370
    25
100
AcDbCircle
 10
2.1883738626
 20
19.0814117124
 30
0.0
 40
0.9000000000000069
100
AcDbArc
 50
309.9151124459
 51
50.0848875541
  0
ARC
  5
333
330
1F
100
AcDbEntity
  8
0
  6
Continuous
 62
     7
370
    25
100
AcDbCircle
 10
3.3344000384
 20
20.4383111207
 30
0.0
 40
0.8761259687304961
100
AcDbArc
 50
129.9151124459
 51
229.539453795
  0
ARC
  5
334
330
1F
100
AcDbEntity
  8
0
  6
Continuous
 62
     7
370
    25
100
AcDbCircle
 10
2.1947453325
 20
21.800592519
 30
0.0
 40
0.9000000000000058
100
AcDbArc
 50
309.9151124459
 51
50.0848875541
  0
ARC
  5
335
330
1F
100
AcDbEntity
  8
0
  6
Continuous
 62
     7
370
    25
100
AcDbCircle
 10
3.3407715083
 20
23.1574919274
 30
0.0
 40
0.8761259687304976
100
AcDbArc
 50
137.0997384652
 51
229.539453795
  0
ARC
  5
336
330
1F
100
AcDbEntity
  8
0
  6
Continuous
 62
     7
370
    25
100
AcDbCircle
 10
2.4792124363
 20
23.9581093515
 30
0.0
 40
0.3000000000000068
100
AcDbArc
 50
317.0997384652
 51
359.7272831205
  0
ARC
  5
337
330
1F
100
AcDbEntity
  8
0
  6
Continuous
 62
     7
370
    25
100
AcDbCircle
 10
4.0938816132
 20
24.9438877483
 30
0.0
 40
1.309999999977659
100
AcDbArc
 50
0.272716879
 51
180.1817607599
  0
ARC
  5
338
330
1F
100
AcDbEntity
  8
0
  6
Continuous
 62
     7
370
    25
100
AcDbCircle
 10
5.7085425422
 20
23.9685004128
 30
0.0
 40
0.3000000000000056
100
AcDbArc
 50
180.2727168795
 51
222.9002615348
  0
ARC
  5
339
330
1F
100
AcDbEntity
  8
0
  6
Continuous
 62
     7
370
    25
100
AcDbCircle
 10
4.8469834703
 20
23.1678829887
 30
0.0
 40
0.876125968730503
100
AcDbArc
 50
310.460546205
 51
42.9002615348
  0
ARC
  5
33A
330
1F
100
AcDbEntity
  8
0
  6
Continuous
 62
     7
370
    25
100
AcDbCircle
 10
5.993009646
 20
21.8109835804
 30
0.0
 40
0.8999999999999997
100
AcDbArc
 50
129.9151124459
 51
230.0848875541
  0
ARC
  5
33B
330
1F
100
AcDbEntity
  8
0
  6
Continuous
 62
     7
370
    25
100
AcDbCircle
 10
4.8533549401
 20
20.4487021821
 30
0.0
 40
0.876125968730506
100
AcDbArc
 50
310.460546205
 51
50.0848875541
  0
ARC
  5
33C
330
1F
100
AcDbEntity
  8
0
  6
Continuous
 62
     7
370
    25
100
AcDbCircle
 10
5.9993811159
 20
19.0918027737
 30
0.0
 40
0.8999999999999991
100
AcDbArc
 50
129.9151124459
 51
230.0848875541
  0
ARC
  5
33D
330
1F
100
AcDbEntity
  8
0
  6
Continuous
 62
     7
370
    25
100
AcDbCircle
 10
4.85972641
 20
17.7295213754
 30
0.0
 40
0.8761259687305022
100
AcDbArc
 50
310.460546205
 51
50.0848875541
  0
ARC
  5
33E
330
1F
100
AcDbEntity
  8
0
  6
Continuous
 62
     7
370
    25
100
AcDbCircle
 10
6.0122976753
 20
16.3781506138
 30
0.0
 40
0.9000000000000276
100
AcDbArc
 50
130.460546205
 51
229.731115006
  0
ARC
  5
33F
330
1F
100
AcDbEntity
  8
0
  6
Continuous
 62
     7
370
    25
100
AcDbCircle
 10
4.8488217572
 20
15.0047155815
 30
0.0
 40
0.8999999999999513
100
AcDbArc
 50
310.7052372715
 51
49.731115006
  0
ARC
  5
340
330
1F
100
AcDbEntity
  8
0
  6
Continuous
 62
     7
370
    25
100
AcDbCircle
 10
6.0227236179
 20
13.6401810742
 30
0.0
 40
0.9000000000000004
100
AcDbArc
 50
130.7052372715
 51
230.0848875541
  0
ARC
  5
341
330
1F
100
AcDbEntity
  8
0
  6
Continuous
 62
     7
370
    25
100
AcDbCircle
 10
4.883068913
 20
12.277899675
 30
0.0
 40
0.8761259687305196
100
AcDbArc
 50
310.4605462901
 51
50.0848876434
  0
ARC
  5
342
330
1F
100
AcDbEntity
  8
0
  6
Continuous
 62
     7
370
    25
100
AcDbCircle
 10
6.0356401793
 20
10.9265289143
 30
0.0
 40
0.9000000000000188
100
AcDbArc
 50
130.460546205
 51
229.731115006
  0
ARC
  5
343
330
1F
100
AcDbEntity
  8
0
  6
Continuous
 62
     7
370
    25
100
AcDbCircle
 10
4.8721642613
 20
9.5530938819
 30
0.0
 40
0.8999999999999645
100
AcDbArc
 50
309.9151124416
 51
49.731115006
  0
ARC
  5
344
330
1F
100
AcDbEntity
  8
0
  6
Continuous
 62
     7
370
    25
100
AcDbCircle
 10
6.027137786
 20
8.1725011986
 30
0.0
 40
0.8999999999999991
100
AcDbArc
 50
129.9151124459
 51
230.0848875541
  0
ARC
  5
345
330
1F
100
AcDbEntity
  8
0
  6
Continuous
 62
     7
370
    25
100
AcDbCircle
 10
4.8874830801
 20
6.8102198003
 30
0.0
 40
0.8761259687304996
100
AcDbArc
 50
310.460546205
 51
50.0848875541
  0
ARC
  5
346
330
1F
100
AcDbEntity
  8
0
  6
Continuous
 62
     7
370
    25
100
AcDbCircle
 10
6.0335092559
 20
5.453320392
 30
0.0
 40
0.9000000000000004
100
AcDbArc
 50
129.9151124459
 51
230.0848875541
  0
ARC
  5
347
330
1F
100
AcDbEntity
  8
0
  6
Continuous
 62
     7
370
    25
100
AcDbCircle
 10
4.89385455
 20
4.0910389937
 30
0.0
 40
0.8761259687305009
100
AcDbArc
 50
310.460546205
 51
50.0848875541
  0
ARC
  5
348
330
1F
100
AcDbEntity
  8
0
  6
Continuous
 62
     7
370
    25
100
AcDbCircle
 10
6.0464258152
 20
2.7396682321
 30
0.0
 40
0.90000000000003
100
AcDbArc
 50
130.460546205
 51
229.731115006
  0
ARC
  5
349
330
1F
100
AcDbEntity
  8
0
  6
Continuous
 62
     7
370
    25
100
AcDbCircle
 10
4.8829498972
 20
1.3662331998
 30
0.0
 40
0.8999999999999491
100
AcDbArc
 50
310.7052372715
 51
49.731115006
  0
ARC
  5
34A
330
1F
100
AcDbEntity
  8
0
  6
Continuous
 62
     7
370
    25
100
AcDbCircle
 10
6.0568517579
 20
0.0016986925
 30
0.0
 40
0.8999999999999997
100
AcDbArc
 50
130.7052372715
 51
230.0848875541
  0
ARC
  5
34B
330
1F
100
AcDbEntity
  8
0
  6
Continuous
 62
     7
370
    25
100
AcDbCircle
 10
4.917197052
 20
-1.3605827058
 30
0.0
 40
0.8761259687305097
100
AcDbArc
 50
310.460546205
 51
50.0848875541
  0
ARC
  5
34C
330
1F
100
AcDbEntity
  8
0
  6
Continuous
 62
     7
370
    25
100
AcDbCircle
 10
6.0697683172
 20
-2.7119534674
 30
0.0
 40
0.90000000000001
100
AcDbArc
 50
130.4605462049
 51
229.7311150059
  0
ARC
  5
34D
330
1F
100
AcDbEntity
  8
0
  6
Continuous
 62
     7
370
    25
100
AcDbCircle
 10
4.9062923992
 20
-4.0853884998
 30
0.0
 40
0.9000000000012884
100
AcDbArc
 50
312.5100740147
 51
49.731115006
  0
ARC
  5
34E
330
1F
100
AcDbEntity
  8
0
  6
Continuous
 62
     7
370
    25
100
AcDbCircle
 10
6.0919270075
 20
-5.4391275273
 30
0.0
 40
0.9000000000000009
100
AcDbArc
 50
129.91511245
 51
230.0848875541
  0
ARC
  5
34F
330
1F
100
AcDbEntity
  8
0
  6
Continuous
 62
     7
370
    25
100
AcDbCircle
 10
4.9522723016
 20
-6.8014089256
 30
0.0
 40
0.8761259687304996
100
AcDbArc
 50
310.460546205
 51
50.0848875541
  0
ARC
  5
350
330
1F
100
AcDbEntity
  8
0
  6
Continuous
 62
     7
370
    25
100
AcDbCircle
 10
6.0982984774
 20
-8.1583083339
 30
0.0
 40
0.9000000000000075
100
AcDbArc
 50
129.9151124459
 51
230.0848875541
  0
ARC
  5
351
330
1F
100
AcDbEntity
  8
0
  6
Continuous
 62
     7
370
    25
100
AcDbCircle
 10
4.9586437715
 20
-9.5205897322
 30
0.0
 40
0.8761259687304992
100
AcDbArc
 50
310.460546205
 51
50.0848875541
  0
ARC
  5
352
330
1F
100
AcDbEntity
  8
0
  6
Continuous
 62
     7
370
    25
100
AcDbCircle
 10
6.1112150368
 20
-10.8719604938
 30
0.0
 40
0.9000000000000308
100
AcDbArc
 50
130.460546205
 51
229.731115006
  0
ARC
  5
353
330
1F
100
AcDbEntity
  8
0
  6
Continuous
 62
     7
370
    25
100
AcDbCircle
 10
4.9477391177
 20
-12.2453955253
 30
0.0
 40
0.8999999999999551
100
AcDbArc
 50
310.7052371801
 51
49.7311149188
  0
ARC
  5
354
330
1F
100
AcDbEntity
  8
0
  6
Continuous
 62
     7
370
    25
100
AcDbCircle
 10
6.1216409773
 20
-13.6099300335
 30
0.0
 40
0.9000000000000062
100
AcDbArc
 50
130.7052372715
 51
230.0848875541
  0
ARC
  5
355
330
1F
100
AcDbEntity
  8
0
  6
Continuous
 62
     7
370
    25
100
AcDbCircle
 10
4.9819862714
 20
-14.9722114318
 30
0.0
 40
0.8761259687305036
100
AcDbArc
 50
310.460546205
 51
50.0848875541
  0
ARC
  5
356
330
1F
100
AcDbEntity
  8
0
  6
Continuous
 62
     7
370
    25
100
AcDbCircle
 10
6.1345575366
 20
-16.3235821934
 30
0.0
 40
0.9000000000000226
100
AcDbArc
 50
130.460546205
 51
229.731115006
  0
ARC
  5
357
330
1F
100
AcDbEntity
  8
0
  6
Continuous
 62
     7
370
    25
100
AcDbCircle
 10
4.9710843909
 20
-17.6970139532
 30
0.0
 40
0.8999957110097346
100
AcDbArc
 50
310.09199872
 51
49.731115006
  0
ARC
  5
358
330
1F
100
AcDbEntity
  8
0
  6
Continuous
 62
     7
370
    25
100
AcDbCircle
 10
6.1303118745
 20
-19.0740310921
 30
0.0
 40
0.9000000000000011
100
AcDbArc
 50
130.09199872
 51
230.0848875541
  0
ARC
  5
359
330
1F
100
AcDbEntity
  8
0
  6
Continuous
 62
     7
370
    25
100
AcDbCircle
 10
4.9906571686
 20
-20.4363124904
 30
0.0
 40
0.8761259687305039
100
AcDbArc
 50
310.460546205
 51
50.0848875541
  0
ARC
  5
35A
330
1F
100
AcDbEntity
  8
0
  6
Continuous
 62
     7
370
    25
100
AcDbCircle
 10
6.1604938813
 20
-21.7725733487
 30
0.0
 40
0.8999999999999926
100
AcDbArc
 50
131.9212152539
 51
180.0
  0
ARC
  5
35B
330
1F
100
AcDbEntity
  8
0
  6
Continuous
 62
     7
370
    25
100
AcDbCircle
 10
10.2759471781
 20
-21.7725733487
 30
0.0
 40
0.8999999999999846
100
AcDbArc
 50
0.0
 51
48.0787847461
  0
ARC
  5
35C
330
1F
100
AcDbEntity
  8
0
  6
Continuous
 62
     7
370
    25
100
AcDbCircle
 10
11.4457838908
 20
-20.4363124904
 30
0.0
 40
0.8761259687305062
100
AcDbArc
 50
129.9151124459
 51
229.539453795
  0
ARC
  5
35D
330
1F
100
AcDbEntity
  8
0
  6
Continuous
 62
     7
370
    25
100
AcDbCircle
 10
10.3061291849
 20
-19.0740310921
 30
0.0
 40
0.8999999999999931
100
AcDbArc
 50
309.9151124459
 51
49.90800128
  0
ARC
  5
35E
330
1F
100
AcDbEntity
  8
0
  6
Continuous
 62
     7
370
    25
100
AcDbCircle
 10
11.4653566685
 20
-17.6970139532
 30
0.0
 40
0.8999957110097367
100
AcDbArc
 50
130.268884994
 51
229.90800128
  0
ARC
  5
35F
330
1F
100
AcDbEntity
  8
0
  6
Continuous
 62
     7
370
    25
100
AcDbCircle
 10
10.3018835228
 20
-16.3235821934
 30
0.0
 40
0.9000000000000251
100
AcDbArc
 50
310.268884994
 51
49.539453795
  0
ARC
  5
360
330
1F
100
AcDbEntity
  8
0
  6
Continuous
 62
     7
370
    25
100
AcDbCircle
 10
11.4544547881
 20
-14.9722114318
 30
0.0
 40
0.8761259687305045
100
AcDbArc
 50
129.9151124459
 51
229.539453795
  0
ARC
  5
361
330
1F
100
AcDbEntity
  8
0
  6
Continuous
 62
     7
370
    25
100
AcDbCircle
 10
10.3148000822
 20
-13.6099300335
 30
0.0
 40
0.9000000000000109
100
AcDbArc
 50
309.9151124459
 51
49.2947627285
  0
ARC
  5
362
330
1F
100
AcDbEntity
  8
0
  6
Continuous
 62
     7
370
    25
100
AcDbCircle
 10
11.4887019417
 20
-12.2453955253
 30
0.0
 40
0.899999999999957
100
AcDbArc
 50
130.2688850812
 51
229.2947628199
  0
ARC
  5
363
330
1F
100
AcDbEntity
  8
0
  6
Continuous
 62
     7
370
    25
100
AcDbCircle
 10
10.3252260227
 20
-10.8719604938
 30
0.0
 40
0.900000000000033
100
AcDbArc
 50
310.268884994
 51
49.539453795
  0
ARC
  5
364
330
1F
100
AcDbEntity
  8
0
  6
Continuous
 62
     7
370
    25
100
AcDbCircle
 10
11.4777972879
 20
-9.5205897322
 30
0.0
 40
0.8761259687304956
100
AcDbArc
 50
129.9151124459
 51
229.539453795
  0
ARC
  5
365
330
1F
100
AcDbEntity
  8
0
  6
Continuous
 62
     7
370
    25
100
AcDbCircle
 10
10.338142582
 20
-8.1583083339
 30
0.0
 40
0.9000000000000066
100
AcDbArc
 50
309.9151124459
 51
50.0848875541
  0
ARC
  5
366
330
1F
100
AcDbEntity
  8
0
  6
Continuous
 62
     7
370
    25
100
AcDbCircle
 10
11.4841687578
 20
-6.8014089256
 30
0.0
 40
0.8761259687304997
100
AcDbArc
 50
129.9151124459
 51
229.539453795
  0
ARC
  5
367
330
1F
100
AcDbEntity
  8
0
  6
Continuous
 62
     7
370
    25
100
AcDbCircle
 10
10.3445140519
 20
-5.4391275273
 30
0.0
 40
0.8999999999999992
100
AcDbArc
 50
309.9151124459
 51
50.08488755
  0
ARC
  5
368
330
1F
100
AcDbEntity
  8
0
  6
Continuous
 62
     7
370
    25
100
AcDbCircle
 10
11.5301486602
 20
-4.0853884998
 30
0.0
 40
0.9000000000012869
100
AcDbArc
 50
130.268884994
 51
227.4899259853
  0
ARC
  5
369
330
1F
100
AcDbEntity
  8
0
  6
Continuous
 62
     7
370
    25
100
AcDbCircle
 10
10.3666727422
 20
-2.7119534674
 30
0.0
 40
0.9000000000000089
100
AcDbArc
 50
310.2688849941
 51
49.5394537951
  0
ARC
  5
36A
330
1F
100
AcDbEntity
  8
0
  6
Continuous
 62
     7
370
    25
100
AcDbCircle
 10
11.5192440074
 20
-1.3605827058
 30
0.0
 40
0.8761259687305064
100
AcDbArc
 50
129.9151124459
 51
229.539453795
  0
ARC
  5
36B
330
1F
100
AcDbEntity
  8
0
  6
Continuous
 62
     7
370
    25
100
AcDbCircle
 10
10.3795893016
 20
0.0016986925
 30
0.0
 40
0.8999999999999972
100
AcDbArc
 50
309.9151124459
 51
49.2947627285
  0
ARC
  5
36C
330
1F
100
AcDbEntity
  8
0
  6
Continuous
 62
     7
370
    25
100
AcDbCircle
 10
11.5534911622
 20
1.3662331998
 30
0.0
 40
0.8999999999999525
100
AcDbArc
 50
130.268884994
 51
229.2947627285
  0
ARC
  5
36D
330
1F
100
AcDbEntity
  8
0
  6
Continuous
 62
     7
370
    25
100
AcDbCircle
 10
10.3900152442
 20
2.7396682321
 30
0.0
 40
0.9000000000000291
100
AcDbArc
 50
310.268884994
 51
49.539453795
  0
ARC
  5
36E
330
1F
100
AcDbEntity
  8
0
  6
Continuous
 62
     7
370
    25
100
AcDbCircle
 10
11.5425865094
 20
4.0910389937
 30
0.0
 40
0.8761259687305021
100
AcDbArc
 50
129.9151124459
 51
229.539453795
  0
ARC
  5
36F
330
1F
100
AcDbEntity
  8
0
  6
Continuous
 62
     7
370
    25
100
AcDbCircle
 10
10.4029318036
 20
5.453320392
 30
0.0
 40
0.900000000000005
100
AcDbArc
 50
309.9151124459
 51
50.0848875541
  0
ARC
  5
370
330
1F
100
AcDbEntity
  8
0
  6
Continuous
 62
     7
370
    25
100
AcDbCircle
 10
11.5489579793
 20
6.8102198003
 30
0.0
 40
0.8761259687305004
100
AcDbArc
 50
129.9151124459
 51
229.539453795
  0
ARC
  5
371
330
1F
100
AcDbEntity
  8
0
  6
Continuous
 62
     7
370
    25
100
AcDbCircle
 10
10.4093032734
 20
8.1725011986
 30
0.0
 40
0.900000000000003
100
AcDbArc
 50
309.9151124459
 51
47.3197199395
  0
ARC
  5
372
330
1F
100
AcDbEntity
  8
0
  6
Continuous
 62
     7
370
    25
100
AcDbCircle
 10
11.6295353125
 20
9.4957675251
 30
0.0
 40
0.8999999999999613
100
AcDbArc
 50
130.268884994
 51
227.3197199395
  0
ENDSEC
  0
SECTION
  2
OBJECTS
  0
DICTIONARY
  5
C
330
0
100
AcDbDictionary
281
     1
  3
ACAD_GROUP
350
D
  3
ACAD_LAYOUT
350
1A
  3
ACAD_MLINESTYLE
350
17
  3
ACAD_PLOTSETTINGS
350
19
  3
ACAD_PLOTSTYLENAME
350
E
  3
ACAD_SCALELIST
350
47
  3
DWGPROPS
350
373
  0
DICTIONARY
  5
D
102
{ACAD_REACTORS
330
C
102
}
330
C
100
AcDbDictionary
281
     1
  0
DICTIONARY
  5
1A
102
{ACAD_REACTORS
330
C
102
}
330
C
100
AcDbDictionary
281
     1
  3
Layout1
350
1E
  3
Layout2
350
26
  3
Model
350
22
  0
DICTIONARY
  5
17
102
{ACAD_REACTORS
330
C
102
}
330
C
100
AcDbDictionary
281
     1
  3
Standard
350
18
  0
DICTIONARY
  5
19
102
{ACAD_REACTORS
330
C
102
}
330
C
100
AcDbDictionary
281
     1
  0
ACDBDICTIONARYWDFLT
  5
E
102
{ACAD_REACTORS
330
C
102
}
330
C
100
AcDbDictionary
281
     1
  3
Normal
350
F
100
AcDbDictionaryWithDefault
340
F
  0
DICTIONARY
  5
47
102
{ACAD_REACTORS
330
C
102
}
330
C
100
AcDbDictionary
281
     1
  3
A0
350
48
  3
A1
350
49
  3
A2
350
4A
  3
A3
350
4B
  3
A4
350
4C
  3
A5
350
4D
  3
A6
350
4E
  3
A7
350
4F
  3
A8
350
50
  3
A9
350
51
  3
B0
350
52
  3
B1
350
53
  3
B2
350
54
  3
B3
350
55
  3
B4
350
56
  3
B5
350
57
  3
B6
350
58
  3
B7
350
59
  3
B8
350
5A
  3
B9
350
5B
  3
C0
350
5C
  3
C1
350
5D
  3
C2
350
5E
  3
C3
350
5F
  3
C4
350
60
  3
C5
350
61
  3
C6
350
62
  3
C7
350
63
  3
C8
350
64
  3
C9
350
65
  3
D0
350
66
  3
D1
350
67
  3
D2
350
68
  0
XRECORD
  5
373
102
{ACAD_REACTORS
330
C
102
}
330
C
100
AcDbXrecord
280
     1
  1
DWGPROPS COOKIE
  2

  3

  4

  6

  7

  8
DD22
  9

300
=
301
=
302
=
303
=
304
=
305
=
306
=
307
=
308
=
309
=
 40
0.0
 41
2459478.332872743
 42
2459478.33290081
  1

 90
        0
  0
LAYOUT
  5
1E
102
{ACAD_REACTORS
330
1A
102
}
330
1A
100
AcDbPlotSettings
  1

  2
none_device
  4

  6

 40
0.0
 41
0.0
 42
0.0
 43
0.0
 44
0.0
 45
0.0
 46
0.0
 47
0.0
 48
0.0
 49
0.0
140
0.0
141
0.0
142
1.0
143
1.0
 70
   688
 72
     1
 73
     0
 74
     5
  7

 75
    16
147
1.0
148
0.0
149
0.0
100
AcDbLayout
  1
Layout1
 70
     1
 71
     1
 10
0.0
 20
0.0
 11
420.0
 21
297.0
 12
0.0
 22
0.0
 32
0.0
 14
1.0000000000E+20
 24
1.0000000000E+20
 34
1.0000000000E+20
 15
-1.0000000000E+20
 25
-1.0000000000E+20
 35
-1.0000000000E+20
146
0.0
 13
0.0
 23
0.0
 33
0.0
 16
1.0
 26
0.0
 36
0.0
 17
0.0
 27
1.0
 37
0.0
 76
     0
330
1B
  0
LAYOUT
  5
26
102
{ACAD_REACTORS
330
1A
102
}
330
1A
100
AcDbPlotSettings
  1

  2
none_device
  4

  6

 40
0.0
 41
0.0
 42
0.0
 43
0.0
 44
0.0
 45
0.0
 46
0.0
 47
0.0
 48
0.0
 49
0.0
140
0.0
141
0.0
142
1.0
143
1.0
 70
   688
 72
     1
 73
     0
 74
     5
  7

 75
    16
147
1.0
148
0.0
149
0.0
100
AcDbLayout
  1
Layout2
 70
     1
 71
     2
 10
0.0
 20
0.0
 11
0.0
 21
0.0
 12
0.0
 22
0.0
 32
0.0
 14
0.0
 24
0.0
 34
0.0
 15
0.0
 25
0.0
 35
0.0
146
0.0
 13
0.0
 23
0.0
 33
0.0
 16
1.0
 26
0.0
 36
0.0
 17
0.0
 27
1.0
 37
0.0
 76
     0
330
23
  0
LAYOUT
  5
22
102
{ACAD_REACTORS
330
1A
102
}
330
1A
100
AcDbPlotSettings
  1

  2
none_device
  4
ANSI_A_(11.00_x_8.50_Inches)
  6

 40
6.35
 41
19.05
 42
6.35000508
 43
19.05000254
 44
279.4
 45
215.9
 46
133.4550651691
 47
102.1768594052
 48
0.0
 49
0.0
140
0.0
141
0.0
142
0.1401273575
143
1.0
 70
  1696
 72
     0
 73
     0
 74
     0
  7

 75
     0
147
0.0179189148
148
-1300.4909072572
149
0.0
100
AcDbLayout
  1
Model
 70
     1
 71
     0
 10
0.0
 20
0.0
 11
420.0
 21
297.0
 12
0.0
 22
0.0
 32
0.0
 14
-22.5
 24
-33.756513616
 34
0.0
 15
22.4409605083
 25
26.2959996997
 35
0.0
146
0.0
 13
0.0
 23
0.0
 33
0.0
 16
1.0
 26
0.0
 36
0.0
 17
0.0
 27
1.0
 37
0.0
 76
     0
330
1F
331
29
  0
MLINESTYLE
  5
18
102
{ACAD_REACTORS
330
17
102
}
330
17
100
AcDbMlineStyle
  2
Standard
 70
     0
  3

 62
   256
 51
90.0
 52
90.0
 71
     2
 49
0.5
 62
   256
  6
BYLAYER
 49
-0.5
 62
   256
  6
BYLAYER
  0
ACDBPLACEHOLDER
  5
F
102
{ACAD_REACTORS
330
E
102
}
330
E
  0
SCALE
  5
48
102
{ACAD_REACTORS
330
47
102
}
330
47
100
AcDbScale
 70
     0
300
1:1
140
1.0
141
1.0
290
     1
  0
SCALE
  5
49
102
{ACAD_REACTORS
330
47
102
}
330
47
100
AcDbScale
 70
     0
300
1:2
140
1.0
141
2.0
290
     0
  0
SCALE
  5
4A
102
{ACAD_REACTORS
330
47
102
}
330
47
100
AcDbScale
 70
     0
300
1:4
140
1.0
141
4.0
290
     0
  0
SCALE
  5
4B
102
{ACAD_REACTORS
330
47
102
}
330
47
100
AcDbScale
 70
     0
300
1:5
140
1.0
141
5.0
290
     0
  0
SCALE
  5
4C
102
{ACAD_REACTORS
330
47
102
}
330
47
100
AcDbScale
 70
     0
300
1:8
140
1.0
141
8.0
290
     0
  0
SCALE
  5
4D
102
{ACAD_REACTORS
330
47
102
}
330
47
100
AcDbScale
 70
     0
300
1:10
140
1.0
141
10.0
290
     0
  0
SCALE
  5
4E
102
{ACAD_REACTORS
330
47
102
}
330
47
100
AcDbScale
 70
     0
300
1:16
140
1.0
141
16.0
290
     0
  0
SCALE
  5
4F
102
{ACAD_REACTORS
330
47
102
}
330
47
100
AcDbScale
 70
     0
300
1:20
140
1.0
141
20.0
290
     0
  0
SCALE
  5
50
102
{ACAD_REACTORS
330
47
102
}
330
47
100
AcDbScale
 70
     0
300
1:30
140
1.0
141
30.0
290
     0
  0
SCALE
  5
51
102
{ACAD_REACTORS
330
47
102
}
330
47
100
AcDbScale
 70
     0
300
1:40
140
1.0
141
40.0
290
     0
  0
SCALE
  5
52
102
{ACAD_REACTORS
330
47
102
}
330
47
100
AcDbScale
 70
     0
300
1:50
140
1.0
141
50.0
290
     0
  0
SCALE
  5
53
102
{ACAD_REACTORS
330
47
102
}
330
47
100
AcDbScale
 70
     0
300
1:100
140
1.0
141
100.0
290
     0
  0
SCALE
  5
54
102
{ACAD_REACTORS
330
47
102
}
330
47
100
AcDbScale
 70
     0
300
2:1
140
2.0
141
1.0
290
     0
  0
SCALE
  5
55
102
{ACAD_REACTORS
330
47
102
}
330
47
100
AcDbScale
 70
     0
300
4:1
140
4.0
141
1.0
290
     0
  0
SCALE
  5
56
102
{ACAD_REACTORS
330
47
102
}
330
47
100
AcDbScale
 70
     0
300
8:1
140
8.0
141
1.0
290
     0
  0
SCALE
  5
57
102
{ACAD_REACTORS
330
47
102
}
330
47
100
AcDbScale
 70
     0
300
10:1
140
10.0
141
1.0
290
     0
  0
SCALE
  5
58
102
{ACAD_REACTORS
330
47
102
}
330
47
100
AcDbScale
 70
     0
300
100:1
140
100.0
141
1.0
290
     0
  0
SCALE
  5
59
102
{ACAD_REACTORS
330
47
102
}
330
47
100
AcDbScale
 70
     0
300
1/128" = 1'-0"
140
0.0078125
141
12.0
290
     0
  0
SCALE
  5
5A
102
{ACAD_REACTORS
330
47
102
}
330
47
100
AcDbScale
 70
     0
300
1/64" = 1'-0"
140
0.015625
141
12.0
290
     0
  0
SCALE
  5
5B
102
{ACAD_REACTORS
330
47
102
}
330
47
100
AcDbScale
 70
     0
300
1/32" = 1'-0"
140
0.03125
141
12.0
290
     0
  0
SCALE
  5
5C
102
{ACAD_REACTORS
330
47
102
}
330
47
100
AcDbScale
 70
     0
300
1/16" = 1'-0"
140
0.0625
141
12.0
290
     0
  0
SCALE
  5
5D
102
{ACAD_REACTORS
330
47
102
}
330
47
100
AcDbScale
 70
     0
300
3/32" = 1'-0"
140
0.09375
141
12.0
290
     0
  0
SCALE
  5
5E
102
{ACAD_REACTORS
330
47
102
}
330
47
100
AcDbScale
 70
     0
300
1/8" = 1'-0"
140
0.125
141
12.0
290
     0
  0
SCALE
  5
5F
102
{ACAD_REACTORS
330
47
102
}
330
47
100
AcDbScale
 70
     0
300
3/16" = 1'-0"
140
0.1875
141
12.0
290
     0
  0
SCALE
  5
60
102
{ACAD_REACTORS
330
47
102
}
330
47
100
AcDbScale
 70
     0
300
1/4" = 1'-0"
140
0.25
141
12.0
290
     0
  0
SCALE
  5
61
102
{ACAD_REACTORS
330
47
102
}
330
47
100
AcDbScale
 70
     0
300
3/8" = 1'-0"
140
0.375
141
12.0
290
     0
  0
SCALE
  5
62
102
{ACAD_REACTORS
330
47
102
}
330
47
100
AcDbScale
 70
     0
300
1/2" = 1'-0"
140
0.5
141
12.0
290
     0
  0
SCALE
  5
63
102
{ACAD_REACTORS
330
47
102
}
330
47
100
AcDbScale
 70
     0
300
3/4" = 1'-0"
140
0.75
141
12.0
290
     0
  0
SCALE
  5
64
102
{ACAD_REACTORS
330
47
102
}
330
47
100
AcDbScale
 70
     0
300
1" = 1'-0"
140
1.0
141
12.0
290
     0
  0
SCALE
  5
65
102
{ACAD_REACTORS
330
47
102
}
330
47
100
AcDbScale
 70
     0
300
1-1/2" = 1'-0"
140
1.5
141
12.0
290
     0
  0
SCALE
  5
66
102
{ACAD_REACTORS
330
47
102
}
330
47
100
AcDbScale
 70
     0
300
3" = 1'-0"
140
3.0
141
12.0
290
     0
  0
SCALE
  5
67
102
{ACAD_REACTORS
330
47
102
}
330
47
100
AcDbScale
 70
     0
300
6" = 1'-0"
140
6.0
141
12.0
290
     0
  0
SCALE
  5
68
102
{ACAD_REACTORS
330
47
102
}
330
47
100
AcDbScale
 70
     0
300
1'-0" = 1'-0"
140
12.0
141
12.0
290
     0
  0
ENDSEC
  0
EOF
